  0
SECTION
  2
HEADER
  9
$ACADVER
  1
AC1015
  9
$ACADMAINTVER
 70
    20
  9
$DWGCODEPAGE
  3
ANSI_1252
  9
$INSBASE
 10
0.0
 20
0.0
 30
0.0
  9
$EXTMIN
 10
0.0
 20
-6.051790000000044
 30
0.0
  9
$EXTMAX
 10
270.5729877216917
 20
200.0
 30
0.0
  9
$LIMMIN
 10
0.0
 20
0.0
  9
$LIMMAX
 10
265.0
 20
200.0
  9
$ORTHOMODE
 70
     0
  9
$REGENMODE
 70
     1
  9
$FILLMODE
 70
     1
  9
$QTEXTMODE
 70
     0
  9
$MIRRTEXT
 70
     1
  9
$LTSCALE
 40
7.62
  9
$ATTMODE
 70
     1
  9
$TEXTSIZE
 40
2.5
  9
$TRACEWID
 40
0.05
  9
$TEXTSTYLE
  7
ROMANT
  9
$CLAYER
  8
Bars
  9
$CELTYPE
  6
ByLayer
  9
$CECOLOR
 62
   256
  9
$CELTSCALE
 40
1.0
  9
$DISPSILH
 70
     0
  9
$DIMSCALE
 40
12.7
  9
$DIMASZ
 40
0.18
  9
$DIMEXO
 40
0.0625
  9
$DIMDLI
 40
0.38
  9
$DIMRND
 40
0.0
  9
$DIMDLE
 40
0.0
  9
$DIMEXE
 40
0.18
  9
$DIMTP
 40
0.0
  9
$DIMTM
 40
0.0
  9
$DIMTXT
 40
0.18
  9
$DIMCEN
 40
0.09
  9
$DIMTSZ
 40
0.0
  9
$DIMTOL
 70
     0
  9
$DIMLIM
 70
     0
  9
$DIMTIH
 70
     1
  9
$DIMTOH
 70
     1
  9
$DIMSE1
 70
     0
  9
$DIMSE2
 70
     0
  9
$DIMTAD
 70
     0
  9
$DIMZIN
 70
     0
  9
$DIMBLK
  1

  9
$DIMASO
 70
     1
  9
$DIMSHO
 70
     1
  9
$DIMPOST
  1

  9
$DIMAPOST
  1

  9
$DIMALT
 70
     0
  9
$DIMALTD
 70
     2
  9
$DIMALTF
 40
25.4
  9
$DIMLFAC
 40
1.0
  9
$DIMTOFL
 70
     0
  9
$DIMTVP
 40
0.0
  9
$DIMTIX
 70
     0
  9
$DIMSOXD
 70
     0
  9
$DIMSAH
 70
     0
  9
$DIMBLK1
  1

  9
$DIMBLK2
  1

  9
$DIMSTYLE
  2
Standard
  9
$DIMCLRD
 70
     0
  9
$DIMCLRE
 70
     0
  9
$DIMCLRT
 70
     0
  9
$DIMTFAC
 40
1.0
  9
$DIMGAP
 40
0.09
  9
$DIMJUST
 70
     0
  9
$DIMSD1
 70
     0
  9
$DIMSD2
 70
     0
  9
$DIMTOLJ
 70
     1
  9
$DIMTZIN
 70
     0
  9
$DIMALTZ
 70
     0
  9
$DIMALTTZ
 70
     0
  9
$DIMUPT
 70
     0
  9
$DIMDEC
 70
     3
  9
$DIMTDEC
 70
     3
  9
$DIMALTU
 70
     2
  9
$DIMALTTD
 70
     2
  9
$DIMTXSTY
  7
STANDARD
  9
$DIMAUNIT
 70
     0
  9
$DIMADEC
 70
     1
  9
$DIMALTRND
 40
0.0
  9
$DIMAZIN
 70
     0
  9
$DIMDSEP
 70
    46
  9
$DIMATFIT
 70
     3
  9
$DIMFRAC
 70
     0
  9
$DIMLDRBLK
  1

  9
$DIMLUNIT
 70
     2
  9
$DIMLWD
 70
    -2
  9
$DIMLWE
 70
    -2
  9
$DIMTMOVE
 70
     2
  9
$LUNITS
 70
     2
  9
$LUPREC
 70
     3
  9
$SKETCHINC
 40
0.1
  9
$FILLETRAD
 40
0.0
  9
$AUNITS
 70
     0
  9
$AUPREC
 70
     1
  9
$MENU
  1
acad
  9
$ELEVATION
 40
0.0
  9
$PELEVATION
 40
0.0
  9
$THICKNESS
 40
0.0
  9
$LIMCHECK
 70
     0
  9
$CHAMFERA
 40
0.0
  9
$CHAMFERB
 40
0.0
  9
$CHAMFERC
 40
0.0
  9
$CHAMFERD
 40
0.0
  9
$SKPOLY
 70
     0
  9
$TDCREATE
 40
2449684.825456134
  9
$TDUCREATE
 40
2449685.033789468
  9
$TDUPDATE
 40
2454471.653758472
  9
$TDUUPDATE
 40
2454471.862091806
  9
$TDINDWG
 40
0.1798489815
  9
$TDUSRTIMER
 40
0.1798489815
  9
$USRTIMER
 70
     1
  9
$ANGBASE
 50
0.0
  9
$ANGDIR
 70
     0
  9
$PDMODE
 70
     0
  9
$PDSIZE
 40
0.0
  9
$PLINEWID
 40
2.227250000000026
  9
$SPLFRAME
 70
     0
  9
$SPLINETYPE
 70
     6
  9
$SPLINESEGS
 70
     8
  9
$HANDSEED
  5
6D0
  9
$SURFTAB1
 70
     6
  9
$SURFTAB2
 70
     6
  9
$SURFTYPE
 70
     6
  9
$SURFU
 70
     6
  9
$SURFV
 70
     6
  9
$UCSBASE
  2

  9
$UCSNAME
  2

  9
$UCSORG
 10
0.0
 20
0.0
 30
0.0
  9
$UCSXDIR
 10
1.0
 20
0.0
 30
0.0
  9
$UCSYDIR
 10
0.0
 20
1.0
 30
0.0
  9
$UCSORTHOREF
  2

  9
$UCSORTHOVIEW
 70
     0
  9
$UCSORGTOP
 10
0.0
 20
0.0
 30
0.0
  9
$UCSORGBOTTOM
 10
0.0
 20
0.0
 30
0.0
  9
$UCSORGLEFT
 10
0.0
 20
0.0
 30
0.0
  9
$UCSORGRIGHT
 10
0.0
 20
0.0
 30
0.0
  9
$UCSORGFRONT
 10
0.0
 20
0.0
 30
0.0
  9
$UCSORGBACK
 10
0.0
 20
0.0
 30
0.0
  9
$PUCSBASE
  2

  9
$PUCSNAME
  2

  9
$PUCSORG
 10
0.0
 20
0.0
 30
0.0
  9
$PUCSXDIR
 10
1.0
 20
0.0
 30
0.0
  9
$PUCSYDIR
 10
0.0
 20
1.0
 30
0.0
  9
$PUCSORTHOREF
  2

  9
$PUCSORTHOVIEW
 70
     0
  9
$PUCSORGTOP
 10
0.0
 20
0.0
 30
0.0
  9
$PUCSORGBOTTOM
 10
0.0
 20
0.0
 30
0.0
  9
$PUCSORGLEFT
 10
0.0
 20
0.0
 30
0.0
  9
$PUCSORGRIGHT
 10
0.0
 20
0.0
 30
0.0
  9
$PUCSORGFRONT
 10
0.0
 20
0.0
 30
0.0
  9
$PUCSORGBACK
 10
0.0
 20
0.0
 30
0.0
  9
$USERI1
 70
     0
  9
$USERI2
 70
     0
  9
$USERI3
 70
     0
  9
$USERI4
 70
     0
  9
$USERI5
 70
     0
  9
$USERR1
 40
0.0
  9
$USERR2
 40
0.0
  9
$USERR3
 40
0.0
  9
$USERR4
 40
0.0
  9
$USERR5
 40
0.0
  9
$WORLDVIEW
 70
     1
  9
$SHADEDGE
 70
     3
  9
$SHADEDIF
 70
    70
  9
$TILEMODE
 70
     1
  9
$MAXACTVP
 70
    16
  9
$PINSBASE
 10
0.0
 20
0.0
 30
0.0
  9
$PLIMCHECK
 70
     0
  9
$PEXTMIN
 10
1.000000000000000E+20
 20
1.000000000000000E+20
 30
1.000000000000000E+20
  9
$PEXTMAX
 10
-1.000000000000000E+20
 20
-1.000000000000000E+20
 30
-1.000000000000000E+20
  9
$PLIMMIN
 10
0.0
 20
0.0
  9
$PLIMMAX
 10
12.0
 20
9.0
  9
$UNITMODE
 70
     0
  9
$VISRETAIN
 70
     0
  9
$PLINEGEN
 70
     0
  9
$PSLTSCALE
 70
     1
  9
$TREEDEPTH
 70
  3020
  9
$CMLSTYLE
  2
Standard
  9
$CMLJUST
 70
     0
  9
$CMLSCALE
 40
1.0
  9
$PROXYGRAPHICS
 70
     1
  9
$MEASUREMENT
 70
     0
  9
$CELWEIGHT
370
    -1
  9
$ENDCAPS
280
     0
  9
$JOINSTYLE
280
     0
  9
$LWDISPLAY
290
     0
  9
$INSUNITS
 70
     0
  9
$HYPERLINKBASE
  1

  9
$STYLESHEET
  1
Default R14 pen assignments.ctb
  9
$XEDIT
290
     1
  9
$CEPSNTYPE
380
     0
  9
$PSTYLEMODE
290
     1
  9
$FINGERPRINTGUID
  2
{C1A6B298-638C-11D3-94FE-00C04F79C678}
  9
$VERSIONGUID
  2
{E3692554-5B6D-11D4-96C9-00C04F79C678}
  9
$EXTNAMES
290
     1
  9
$PSVPSCALE
 40
0.0
  9
$OLESTARTUP
290
     0
  0
ENDSEC
  0
SECTION
  2
CLASSES
  0
CLASS
  1
ACDBDICTIONARYWDFLT
  2
AcDbDictionaryWithDefault
  3
ObjectDBX Classes
 90
        0
280
     0
281
     0
  0
CLASS
  1
ACDBPLACEHOLDER
  2
AcDbPlaceHolder
  3
ObjectDBX Classes
 90
        0
280
     0
281
     0
  0
CLASS
  1
LAYOUT
  2
AcDbLayout
  3
ObjectDBX Classes
 90
        0
280
     0
281
     0
  0
CLASS
  1
TABLESTYLE
  2
AcDbTableStyle
  3
ObjectDBX Classes
 90
     2047
280
     0
281
     0
  0
CLASS
  1
DICTIONARYVAR
  2
AcDbDictionaryVar
  3
ObjectDBX Classes
 90
        0
280
     0
281
     0
  0
ENDSEC
  0
SECTION
  2
TABLES
  0
TABLE
  2
VPORT
  5
8
330
0
100
AcDbSymbolTable
 70
     2
  0
VPORT
  5
6CA
330
8
100
AcDbSymbolTableRecord
100
AcDbViewportTableRecord
  2
*Active
 70
     0
 10
0.0
 20
0.0
 11
1.0
 21
1.0
 12
171.299569310705
 22
96.97899225763871
 13
0.0
 23
0.0
 14
0.25
 24
0.25
 15
1.0
 25
1.0
 16
0.0
 26
0.0
 36
1.0
 17
0.0
 27
0.0
 37
0.0
 40
207.6318662366492
 41
1.908428720083246
 42
50.0
 43
0.0
 44
0.0
 50
0.0
 51
0.0
 71
     0
 72
   100
 73
     1
 74
     0
 75
     0
 76
     0
 77
     0
 78
     0
281
     0
 65
     1
110
0.0
120
0.0
130
0.0
111
1.0
121
0.0
131
0.0
112
0.0
122
1.0
132
0.0
 79
     0
146
0.0
  0
ENDTAB
  0
TABLE
  2
LTYPE
  5
5
330
0
100
AcDbSymbolTable
 70
     1
  0
LTYPE
  5
13
330
5
100
AcDbSymbolTableRecord
100
AcDbLinetypeTableRecord
  2
ByBlock
 70
     0
  3

 72
    65
 73
     0
 40
0.0
  0
LTYPE
  5
14
330
5
100
AcDbSymbolTableRecord
100
AcDbLinetypeTableRecord
  2
ByLayer
 70
     0
  3

 72
    65
 73
     0
 40
0.0
  0
LTYPE
  5
15
330
5
100
AcDbSymbolTableRecord
100
AcDbLinetypeTableRecord
  2
CONTINUOUS
 70
     0
  3
Solid line
 72
    65
 73
     0
 40
0.0
  0
ENDTAB
  0
TABLE
  2
LAYER
  5
2
330
0
100
AcDbSymbolTable
 70
     4
  0
LAYER
  5
10
330
2
100
AcDbSymbolTableRecord
100
AcDbLayerTableRecord
  2
0
 70
     0
 62
    -7
  6
CONTINUOUS
370
    -3
390
F
  0
LAYER
  5
29
330
2
100
AcDbSymbolTableRecord
100
AcDbLayerTableRecord
  2
TITLE
 70
     0
 62
    -6
  6
CONTINUOUS
370
    -3
390
F
  0
LAYER
  5
56
330
2
100
AcDbSymbolTableRecord
100
AcDbLayerTableRecord
  2
Bars
 70
     0
 62
     7
  6
CONTINUOUS
370
    -3
390
F
  0
LAYER
  5
156
330
2
100
AcDbSymbolTableRecord
100
AcDbLayerTableRecord
  2
Align
 70
     0
 62
    -3
  6
CONTINUOUS
370
    -3
390
F
  0
ENDTAB
  0
TABLE
  2
STYLE
  5
3
330
0
100
AcDbSymbolTable
 70
     4
  0
STYLE
  5
11
330
3
100
AcDbSymbolTableRecord
100
AcDbTextStyleTableRecord
  2
STANDARD
 70
     0
 40
0.0
 41
1.0
 50
0.0
 71
     0
 42
0.2
  3
txt
  4

  0
STYLE
  5
24
330
3
100
AcDbSymbolTableRecord
100
AcDbTextStyleTableRecord
  2
ROMANS
 70
     0
 40
5.0
 41
1.0
 50
0.0
 71
     0
 42
5.0
  3
romans
  4

  0
STYLE
  5
25
330
3
100
AcDbSymbolTableRecord
100
AcDbTextStyleTableRecord
  2
ITALICT
 70
     0
 40
10.0
 41
1.0
 50
0.0
 71
     0
 42
10.0
  3
italict
  4

  0
STYLE
  5
26
330
3
100
AcDbSymbolTableRecord
100
AcDbTextStyleTableRecord
  2
ROMANT
 70
     0
 40
0.0
 41
1.0
 50
0.0
 71
     0
 42
2.5
  3
romant
  4

  0
ENDTAB
  0
TABLE
  2
VIEW
  5
6
330
0
100
AcDbSymbolTable
 70
     0
  0
ENDTAB
  0
TABLE
  2
UCS
  5
7
330
0
100
AcDbSymbolTable
 70
     0
  0
ENDTAB
  0
TABLE
  2
APPID
  5
9
330
0
100
AcDbSymbolTable
 70
     1
  0
APPID
  5
12
330
9
100
AcDbSymbolTableRecord
100
AcDbRegAppTableRecord
  2
ACAD
 70
     0
  0
ENDTAB
  0
TABLE
  2
DIMSTYLE
  5
A
330
0
100
AcDbSymbolTable
 70
     1
100
AcDbDimStyleTable
 71
     0
  0
DIMSTYLE
105
4B
330
A
100
AcDbSymbolTableRecord
100
AcDbDimStyleTableRecord
  2
Standard
 70
     0
340
11
  0
ENDTAB
  0
TABLE
  2
BLOCK_RECORD
  5
1
330
0
100
AcDbSymbolTable
 70
     6
  0
BLOCK_RECORD
  5
1E
330
1
100
AcDbSymbolTableRecord
100
AcDbBlockTableRecord
  2
*Model_Space
340
21
  0
BLOCK_RECORD
  5
1A
330
1
100
AcDbSymbolTableRecord
100
AcDbBlockTableRecord
  2
*Paper_Space
340
1D
  0
BLOCK_RECORD
  5
22
330
1
100
AcDbSymbolTableRecord
100
AcDbBlockTableRecord
  2
VIN_TITL
340
0
  0
BLOCK_RECORD
  5
23
330
1
100
AcDbSymbolTableRecord
100
AcDbBlockTableRecord
  2
TITLE05
340
0
102
{BLKREFS
331
2F
102
}
  0
BLOCK_RECORD
  5
5D
330
1
100
AcDbSymbolTableRecord
100
AcDbBlockTableRecord
  2
Bars
340
0
310
2800000020000000200000000100080000000000000400000000000000000000000000000000000000000000000080000080000000808000800000008000800080800000C0C0C000C0DCC000F0CAA6000020400000206000002080000020A0000020C0000020E00000400000004020000040400000406000004080000040A0
310
000040C0000040E00000600000006020000060400000606000006080000060A0000060C0000060E00000800000008020000080400000806000008080000080A0000080C0000080E00000A0000000A0200000A0400000A0600000A0800000A0A00000A0C00000A0E00000C0000000C0200000C0400000C0600000C0800000C0
310
A00000C0C00000C0E00000E0000000E0200000E0400000E0600000E0800000E0A00000E0C00000E0E00040000000400020004000400040006000400080004000A0004000C0004000E00040200000402020004020400040206000402080004020A0004020C0004020E000404000004040200040404000404060004040800040
310
40A0004040C0004040E00040600000406020004060400040606000406080004060A0004060C0004060E00040800000408020004080400040806000408080004080A0004080C0004080E00040A0000040A0200040A0400040A0600040A0800040A0A00040A0C00040A0E00040C0000040C0200040C0400040C0600040C08000
310
40C0A00040C0C00040C0E00040E0000040E0200040E0400040E0600040E0800040E0A00040E0C00040E0E00080000000800020008000400080006000800080008000A0008000C0008000E00080200000802020008020400080206000802080008020A0008020C0008020E00080400000804020008040400080406000804080
310
008040A0008040C0008040E00080600000806020008060400080606000806080008060A0008060C0008060E00080800000808020008080400080806000808080008080A0008080C0008080E00080A0000080A0200080A0400080A0600080A0800080A0A00080A0C00080A0E00080C0000080C0200080C0400080C0600080C0
310
800080C0A00080C0C00080C0E00080E0000080E0200080E0400080E0600080E0800080E0A00080E0C00080E0E000C0000000C0002000C0004000C0006000C0008000C000A000C000C000C000E000C0200000C0202000C0204000C0206000C0208000C020A000C020C000C020E000C0400000C0402000C0404000C0406000C0
310
408000C040A000C040C000C040E000C0600000C0602000C0604000C0606000C0608000C060A000C060C000C060E000C0800000C0802000C0804000C0806000C0808000C080A000C080C000C080E000C0A00000C0A02000C0A04000C0A06000C0A08000C0A0A000C0A0C000C0A0E000C0C00000C0C02000C0C04000C0C06000
310
C0C08000C0C0A000F0FBFF00A4A0A000808080000000FF0000FF000000FFFF00FF000000FF00FF00FFFF0000FFFFFF0000000000000000000000000000000000000000000000000000000000000000000000000000000000000000000000000000000000000000000000000000000000000000000000000000000000000000
310
00000000000000000000000000000000000000000000000000000000000000000000000000000000000000000000000000000000000000000000000000000000000000000000000000000000000000000000000000000000000000000000000000000000000000000000000000000000000000000000000000000000000000
310
00000000000000000000000000000000000000000000000000000000000000000000000000000000000000000000000000000000000000000000000000000000000000000000000000000000000000000000000000000000000000000000000000000000000000000000000000000000000000000000000000000000000000
310
0000000000000000000000000000000000000000FAFA00FAFAFAFAFAFA0000FAFAFAFAFAFAFAFAFAFA000000FAFA000000000000FAFA00FA00FAFA00FA0000FA0000000000000000FA000000FAFA000000000000FAFA00FA00FAFA00FA0000FAFAFAFAFAFAFAFAFAFA000000FAFA000000000000FAFA00FA00FAFA00FA0000
310
00000000000000000000000000FAFA000000000000FAFA00FA00FAFA00FA0000FAFAFAFAFAFAFAFAFAFA000000FAFA000000000000FAFA00FA00FAFA00FA0000FAFAFAFAFAFAFAFAFAFA000000FAFA000000000000FAFA00FA00FAFA00FA00000000000000000000000000FA00FAFA000000000000FAFA00FA00FAFA00FA00
310
00FAFAFAFAFAFAFAFAFAFA00FAFAFAFA000000000000FAFA00FA00FAFA00FA0000FA0000000000000000FA0000FA00FA000000000000FAFA00FAFAFAFAFAFA0000FAFAFAFAFAFAFAFAFAFA000000FAFA0000000000000000000000000000000000000000000000000000000000000000000000000000000000000000000000
310
00000000000000000000000000000000000000000000000000000000000000000000000000000000000000000000000000000000000000000000000000000000000000000000000000000000000000000000000000000000000000000000000000000000000000000000000000000000000000000000000000000000000000
310
00000000000000000000000000000000000000000000000000000000000000000000000000000000000000000000000000000000000000000000000000000000000000000000000000000000000000000000000000000000000000000000000000000000000000000000000000000000000000000000000000000000000000
310
0000000000000000000000000000000000000000000000000000000000000000000000000000000000000000000000000000000000000000
  0
BLOCK_RECORD
  5
15D
330
1
100
AcDbSymbolTableRecord
100
AcDbBlockTableRecord
  2
Bars_right
340
0
310
2800000020000000200000000100080000000000000400000000000000000000000000000000000000000000000080000080000000808000800000008000800080800000C0C0C000C0DCC000F0CAA6000020400000206000002080000020A0000020C0000020E00000400000004020000040400000406000004080000040A0
310
000040C0000040E00000600000006020000060400000606000006080000060A0000060C0000060E00000800000008020000080400000806000008080000080A0000080C0000080E00000A0000000A0200000A0400000A0600000A0800000A0A00000A0C00000A0E00000C0000000C0200000C0400000C0600000C0800000C0
310
A00000C0C00000C0E00000E0000000E0200000E0400000E0600000E0800000E0A00000E0C00000E0E00040000000400020004000400040006000400080004000A0004000C0004000E00040200000402020004020400040206000402080004020A0004020C0004020E000404000004040200040404000404060004040800040
310
40A0004040C0004040E00040600000406020004060400040606000406080004060A0004060C0004060E00040800000408020004080400040806000408080004080A0004080C0004080E00040A0000040A0200040A0400040A0600040A0800040A0A00040A0C00040A0E00040C0000040C0200040C0400040C0600040C08000
310
40C0A00040C0C00040C0E00040E0000040E0200040E0400040E0600040E0800040E0A00040E0C00040E0E00080000000800020008000400080006000800080008000A0008000C0008000E00080200000802020008020400080206000802080008020A0008020C0008020E00080400000804020008040400080406000804080
310
008040A0008040C0008040E00080600000806020008060400080606000806080008060A0008060C0008060E00080800000808020008080400080806000808080008080A0008080C0008080E00080A0000080A0200080A0400080A0600080A0800080A0A00080A0C00080A0E00080C0000080C0200080C0400080C0600080C0
310
800080C0A00080C0C00080C0E00080E0000080E0200080E0400080E0600080E0800080E0A00080E0C00080E0E000C0000000C0002000C0004000C0006000C0008000C000A000C000C000C000E000C0200000C0202000C0204000C0206000C0208000C020A000C020C000C020E000C0400000C0402000C0404000C0406000C0
310
408000C040A000C040C000C040E000C0600000C0602000C0604000C0606000C0608000C060A000C060C000C060E000C0800000C0802000C0804000C0806000C0808000C080A000C080C000C080E000C0A00000C0A02000C0A04000C0A06000C0A08000C0A0A000C0A0C000C0A0E000C0C00000C0C02000C0C04000C0C06000
310
C0C08000C0C0A000F0FBFF00A4A0A000808080000000FF0000FF000000FFFF00FF000000FF00FF00FFFF0000FFFFFF0000000000000000000000000000000000000000000000000000000000000000000000000000000000000000000000000000000000000000000000000000000000000000000000000000000000000000
310
00000000000000000000000000000000000000000000000000000000000000000000000000000000000000000000000000000000000000000000000000000000000000000000000000000000000000000000000000000000000000000000000000000000000000000000000000000000000000000000000000000000000000
310
00000000000000000000000000000000000000000000000000000000000000000000000000000000000000000000000000000000000000000000000000000000000000000000000000000000000000000000000000000000000000000000000000000000000000000000000000000000000000FAFA00000000000000000000
310
00000000000000FAFA0000000000000000000000FAFA0000000000000000000000000000000000FAFA000000000000000000000000000000000000000000000000000000000000FAFA0000FA000000000000000000FFFF00FFFF00FFFFFF0000FFFFFFFFFFFFFFFAFA00FAFAFFFF00000000000000FFFF00FFFF00FF00FF00
310
00FFFFFFFFFFFFFFFFFF000000FFFF00000000000000FFFF00FFFF00FF00FF0000000000000000000000000000FFFF00000000000000FFFF00FFFF00FF00FF0000FFFFFFFFFFFFFFFFFF000000FFFF00000000000000FFFF00FFFF00FF00FF0000FFFFFFFFFFFFFFFFFF000000FFFF00000000000000FFFF00FFFF00FF00FF
310
00000000000000000000000000FFFFFF00000000000000FFFF00FFFF00FF00FF0000FFFFFFFFFFFFFFFFFF0000FFFFFF000000000000FAFFFF00FFFF00FF00FF0000FF000000000000FAFF000000FFFF000000000000FAFFFF00FFFF00FFFFFF0000FFFFFFFFFFFFFFFFFF000000FFFF000000000000000000000000000000
310
00000000000000000000000000000000000000000000000000000000000000000000000000000000000000000000000000000000000000000000000000000000000000000000000000000000000000000000000000000000000000000000000000000000000000000000000000000000000000000000000000000000000000
310
00000000000000000000000000000000000000000000000000000000000000000000000000000000000000000000000000000000000000000000000000000000000000000000000000000000000000000000000000000000000000000000000000000000000000000000000000000000000000000000000000000000000000
310
0000000000000000000000000000000000000000000000000000000000000000000000000000000000000000000000000000000000000000
  0
BLOCK_RECORD
  5
198
330
1
100
AcDbSymbolTableRecord
100
AcDbBlockTableRecord
  2
Bars_left
340
0
310
2800000020000000200000000100080000000000000400000000000000000000000000000000000000000000000080000080000000808000800000008000800080800000C0C0C000C0DCC000F0CAA6000020400000206000002080000020A0000020C0000020E00000400000004020000040400000406000004080000040A0
310
000040C0000040E00000600000006020000060400000606000006080000060A0000060C0000060E00000800000008020000080400000806000008080000080A0000080C0000080E00000A0000000A0200000A0400000A0600000A0800000A0A00000A0C00000A0E00000C0000000C0200000C0400000C0600000C0800000C0
310
A00000C0C00000C0E00000E0000000E0200000E0400000E0600000E0800000E0A00000E0C00000E0E00040000000400020004000400040006000400080004000A0004000C0004000E00040200000402020004020400040206000402080004020A0004020C0004020E000404000004040200040404000404060004040800040
310
40A0004040C0004040E00040600000406020004060400040606000406080004060A0004060C0004060E00040800000408020004080400040806000408080004080A0004080C0004080E00040A0000040A0200040A0400040A0600040A0800040A0A00040A0C00040A0E00040C0000040C0200040C0400040C0600040C08000
310
40C0A00040C0C00040C0E00040E0000040E0200040E0400040E0600040E0800040E0A00040E0C00040E0E00080000000800020008000400080006000800080008000A0008000C0008000E00080200000802020008020400080206000802080008020A0008020C0008020E00080400000804020008040400080406000804080
310
008040A0008040C0008040E00080600000806020008060400080606000806080008060A0008060C0008060E00080800000808020008080400080806000808080008080A0008080C0008080E00080A0000080A0200080A0400080A0600080A0800080A0A00080A0C00080A0E00080C0000080C0200080C0400080C0600080C0
310
800080C0A00080C0C00080C0E00080E0000080E0200080E0400080E0600080E0800080E0A00080E0C00080E0E000C0000000C0002000C0004000C0006000C0008000C000A000C000C000C000E000C0200000C0202000C0204000C0206000C0208000C020A000C020C000C020E000C0400000C0402000C0404000C0406000C0
310
408000C040A000C040C000C040E000C0600000C0602000C0604000C0606000C0608000C060A000C060C000C060E000C0800000C0802000C0804000C0806000C0808000C080A000C080C000C080E000C0A00000C0A02000C0A04000C0A06000C0A08000C0A0A000C0A0C000C0A0E000C0C00000C0C02000C0C04000C0C06000
310
C0C08000C0C0A000F0FBFF00A4A0A000808080000000FF0000FF000000FFFF00FF000000FF00FF00FFFF0000FFFFFF0000000000000000000000000000000000000000000000000000000000000000000000000000000000000000000000000000000000000000000000000000000000000000000000000000000000000000
310
00000000000000000000000000000000000000000000000000000000000000000000000000000000000000000000000000000000000000000000000000000000000000000000000000000000000000000000000000000000000000000000000000000000000000000000000000000000000000000000000000000000000000
310
00000000000000000000000000000000000000000000000000000000000000000000000000000000000000000000000000000000000000000000000000000000000000000000000000000000000000000000000000000000000000000000000000000000000000000000000000000000000000000000000000000000000000
310
0000000000000000000000000000000000000000000000000000000000FAFA0000000000000000000000000000FAFA00000000000000000000000000000000000000000000000000000000000000000000000000000000000000FAFA00FAFAFFFFFFFFFFFF0000FFFF00FFFFFFFFFF00FAFA0000000000000000FFFF00FFFF
310
FFFFFFFFFFFF0000FFFF00FFFFFF00FF0000000000000000000000FFFF0000000000000000000000FFFF00FFFFFF00FF0000000000000000000000FFFF00FFFFFFFFFFFFFFFF0000FFFF00FFFFFF00FF000000000000000000FF00FFFF00FFFFFFFFFFFFFFFF0000FFFF00FFFFFF00FF000000000000000000FFFFFFFF0000
310
000000000000000000FFFF00FFFFFF00FF00000000000000000000FF00FF00FFFFFFFFFFFFFFFF0000FFFF00FFFFFF00FF0000000000000000000000FFFF00FFFFFFFFFFFFFFFF0000FFFF00FFFFFFFFFF00000000000000000000000000000000000000000000000000000000000000000000000000000000000000000000
310
00000000000000000000000000000000000000000000000000000000000000000000000000000000000000000000000000000000000000000000000000000000000000000000000000000000000000000000000000000000000000000000000000000000000000000000000000000000000000000000000000000000000000
310
00000000000000000000000000000000000000000000000000000000000000000000000000000000000000000000000000000000000000000000000000000000000000000000000000000000000000000000000000000000000000000000000000000000000000000000000000000000000000000000000000000000000000
310
0000000000000000000000000000000000000000000000000000000000000000000000000000000000000000000000000000000000000000
  0
BLOCK_RECORD
  5
33F
330
1
100
AcDbSymbolTableRecord
100
AcDbBlockTableRecord
  2
Layer-0
340
0
310
2800000020000000200000000100080000000000000400000000000000000000000000000000000000000000000080000080000000808000800000008000800080800000C0C0C000C0DCC000F0CAA6000020400000206000002080000020A0000020C0000020E00000400000004020000040400000406000004080000040A0
310
000040C0000040E00000600000006020000060400000606000006080000060A0000060C0000060E00000800000008020000080400000806000008080000080A0000080C0000080E00000A0000000A0200000A0400000A0600000A0800000A0A00000A0C00000A0E00000C0000000C0200000C0400000C0600000C0800000C0
310
A00000C0C00000C0E00000E0000000E0200000E0400000E0600000E0800000E0A00000E0C00000E0E00040000000400020004000400040006000400080004000A0004000C0004000E00040200000402020004020400040206000402080004020A0004020C0004020E000404000004040200040404000404060004040800040
310
40A0004040C0004040E00040600000406020004060400040606000406080004060A0004060C0004060E00040800000408020004080400040806000408080004080A0004080C0004080E00040A0000040A0200040A0400040A0600040A0800040A0A00040A0C00040A0E00040C0000040C0200040C0400040C0600040C08000
310
40C0A00040C0C00040C0E00040E0000040E0200040E0400040E0600040E0800040E0A00040E0C00040E0E00080000000800020008000400080006000800080008000A0008000C0008000E00080200000802020008020400080206000802080008020A0008020C0008020E00080400000804020008040400080406000804080
310
008040A0008040C0008040E00080600000806020008060400080606000806080008060A0008060C0008060E00080800000808020008080400080806000808080008080A0008080C0008080E00080A0000080A0200080A0400080A0600080A0800080A0A00080A0C00080A0E00080C0000080C0200080C0400080C0600080C0
310
800080C0A00080C0C00080C0E00080E0000080E0200080E0400080E0600080E0800080E0A00080E0C00080E0E000C0000000C0002000C0004000C0006000C0008000C000A000C000C000C000E000C0200000C0202000C0204000C0206000C0208000C020A000C020C000C020E000C0400000C0402000C0404000C0406000C0
310
408000C040A000C040C000C040E000C0600000C0602000C0604000C0606000C0608000C060A000C060C000C060E000C0800000C0802000C0804000C0806000C0808000C080A000C080C000C080E000C0A00000C0A02000C0A04000C0A06000C0A08000C0A0A000C0A0C000C0A0E000C0C00000C0C02000C0C04000C0C06000
310
C0C08000C0C0A000F0FBFF00A4A0A000808080000000FF0000FF000000FFFF00FF000000FF00FF00FFFF0000FFFFFF0000000000000000000000000000000000000000000000000000000000000000000000000000000000000000000000000000000000000000000000000000000000000000000000000000000000000000
310
0000000000000000000000000000000000000000000000000000000000000000FAFA0000000000000000FA000000000000000000000000FA00000000FA000000FAFA0000000000000000FA00000000000000000000FFFAFAFFFFFFFFFAFA000000FFFFFFFF00FFFFFFFFFAFAFAFF00000000000000FFFFFFFFFFFFFFFF0000
310
0000FFFFFFFF00FFFFFFFFFF00FFFF00000000000000FFFFFAFFFFFFFFFAFA000000FFFFFFFF00FFFFFFFFFF00FFFF00000000000000FFFAFAFFFFFFFFFFFAFA0000FFFFFFFF00FFFFFFFFFF00FFFF00000000000000FFFFFFFFFFFFFFFFFF0000FAFAFFFFFF00FFFFFFFFFA0000FF00000000000000FFFFFAFFFFFFFFFFFA
310
FA00000000000000000000000000000000000000000000FFFAFAFFFFFFFFFFFFFAFA00000000000000FFFFFFFAFA0000000000000000FFFFFFFFFFFFFFFFFFFFFF0000000000000000FAFFFFFAFF000000000000000000FF00FFFFFFFFFFFFFFFF00000000FAFA0000FFFFFFFAFA000000000000000000FF00FAFFFFFFFFFF
310
FFFAFA000000FAFA0000FFFFFFFAFA0000000000000000FFFFFAFAFFFFFFFFFFFFFAFAFA000000000000FFFFFFFFFF0000000000000000FFFFFFFFFFFFFFFFFFFFFFFF000000000000FAFAFFFFFAFA0000000000000000FFFFFFFFFFFFFFFFFFFFFFFF000000000000FFFFFFFFFFFF0000000000000000FFFFFFFAFFFFFFFF
310
FFFFFAFAFA0000000000FAFFFFFFFAFA0000000000000000FFFAFAFAFFFFFFFFFFFFFFFAFAFFFFFFFF00FFFFFFFFFFFF0000000000000000FFFF00FFFFFFFFFFFFFFFFFF00FF0000FFFAFAFFFFFFFAFA0000000000000000FFFFFFFFFFFFFFFFFFFFFFFF00FF0000FFFFFFFFFFFFFAFA0000000000000000FFFF00FFFFFFFF
310
FFFFFFFFFFFAFF0000FFFFFFFFFFFFFFFF000000000000000000FF00FFFFFFFFFFFFFFFAFAFAFFFFFFFFFFFFFFFFFFFF00000000000000000000000000000000FFFF00FAFAFA00000000000000FF000000000000000000000000000000000000FFFF0000000000000000000000FF0000000000000000000000000000000000
310
FFFFFF00000000000000000000FFFF000000000000000000000000000000000000FFFF00000000000000000000FFFF000000000000000000000000000000000000FF00000000000000000000000000000000000000000000000000000000000000000000000000000000000000000000000000000000000000000000000000
310
0000000000000000000000000000000000000000000000000000000000000000000000000000000000000000000000000000000000000000
  0
ENDTAB
  0
ENDSEC
  0
SECTION
  2
BLOCKS
  0
BLOCK
  5
2C
330
1E
100
AcDbEntity
  8
0
100
AcDbBlockBegin
  2
*Model_Space
 70
     0
 10
0.0
 20
0.0
 30
0.0
  3
*Model_Space
  1

  0
ENDBLK
  5
2D
330
1E
100
AcDbEntity
  8
0
100
AcDbBlockEnd
  0
BLOCK
  5
2A
330
1A
100
AcDbEntity
 67
     1
  8
0
100
AcDbBlockBegin
  2
*Paper_Space
 70
     0
 10
0.0
 20
0.0
 30
0.0
  3
*Paper_Space
  1

  0
ENDBLK
  5
2B
330
1A
100
AcDbEntity
 67
     1
  8
0
100
AcDbBlockEnd
  0
BLOCK
  5
2E
330
22
100
AcDbEntity
  8
0
100
AcDbBlockBegin
  2
VIN_TITL
 70
     0
 10
0.0
 20
0.0
 30
0.0
  3
VIN_TITL
  1

  0
INSERT
  5
2F
330
22
100
AcDbEntity
  8
TITLE
100
AcDbBlockReference
  2
TITLE05
 10
0.0000000000000711
 20
0.0
 30
0.0
 41
10.0
 42
10.0
 43
10.0
  0
ENDBLK
  5
30
330
22
100
AcDbEntity
  8
0
100
AcDbBlockEnd
  0
BLOCK
  5
31
330
23
100
AcDbEntity
  8
TITLE
100
AcDbBlockBegin
  2
TITLE05
 70
     0
 10
0.0
 20
0.0
 30
0.0
  3
TITLE05
  1

  0
TEXT
  5
32
330
23
100
AcDbEntity
  8
TITLE
100
AcDbText
 10
-7.100000000000008
 20
1.45
 30
0.0
 40
0.5
  1
ANI 9/5 Potcore Base
 41
0.7709589041095893
  7
ROMANS
 72
     5
 11
-0.4000000000000057
 21
1.45
 31
0.0
100
AcDbText
  0
TEXT
  5
34
330
23
100
AcDbEntity
  8
TITLE
 62
     7
100
AcDbText
 10
-7.450000000000009
 20
2.5
 30
0.0
 40
1.0
  1
Vinland Corporation
 41
0.4154471544715445
  7
ITALICT
 72
     5
 11
-0.1500000000000057
 21
2.5
 31
0.0
100
AcDbText
  0
TEXT
  5
36
330
23
100
AcDbEntity
  8
TITLE
100
AcDbText
 10
-4.890948926034113
 20
0.1711721244348579
 30
0.0
 40
0.45
  1
12-APR-90
 41
0.5333333333333327
  7
ROMANS
 72
     5
 11
-2.730948926034116
 21
0.1711721244348579
 31
0.0
100
AcDbText
  0
TEXT
  5
37
330
23
100
AcDbEntity
  8
TITLE
100
AcDbText
 10
-1.46484360428102
 20
0.1749764936663987
 30
0.0
 40
0.45
  1
0
  7
ROMANS
 72
     1
 11
-1.250557889995306
 21
0.1749764936663987
 31
0.0
100
AcDbText
  0
TEXT
  5
38
330
23
100
AcDbEntity
  8
TITLE
100
AcDbText
 10
-7.379705736233901
 20
0.1749764936663987
 30
0.0
 40
0.45
  1
12-APR-90
 41
0.5333333333333327
  7
ROMANS
 72
     5
 11
-5.219705736233905
 21
0.1749764936663987
 31
0.0
100
AcDbText
  0
TEXT
  5
39
330
23
100
AcDbEntity
  8
TITLE
100
AcDbText
 10
-2.000000000000007
 20
0.925
 30
0.0
 40
0.25
  1
Revision
  7
ROMANS
 72
     4
 11
-1.250000000000007
 21
1.05
 31
0.0
100
AcDbText
  0
TEXT
  5
3A
330
23
100
AcDbEntity
  8
TITLE
100
AcDbText
 10
-4.684523809523816
 20
0.925
 30
0.0
 40
0.25
  1
Rev. Date
  7
ROMANS
 72
     4
 11
-3.750000000000007
 21
1.05
 31
0.0
100
AcDbText
  0
TEXT
  5
3B
330
23
100
AcDbEntity
  8
TITLE
100
AcDbText
 10
-7.220238095238102
 20
0.9266666666666662
 30
0.0
 40
0.25
  1
Orig. Date
  7
ROMANS
 72
     4
 11
-6.250000000000007
 21
1.009999999999999
 31
0.0
100
AcDbText
  0
LINE
  5
3C
330
23
100
AcDbEntity
  8
TITLE
100
AcDbLine
 10
-2.500000000000007
 20
0.0
 30
0.0
 11
-2.500000000000007
 21
1.3
 31
0.0
  0
LINE
  5
3D
330
23
100
AcDbEntity
  8
TITLE
100
AcDbLine
 10
-5.000000000000007
 20
0.0
 30
0.0
 11
-5.000000000000007
 21
1.3
 31
0.0
  0
LINE
  5
3E
330
23
100
AcDbEntity
  8
TITLE
100
AcDbLine
 10
-7.500000000000007
 20
2.1
 30
0.0
 11
-0.0000000000000071
 21
2.1
 31
0.0
  0
LINE
  5
3F
330
23
100
AcDbEntity
  8
TITLE
100
AcDbLine
 10
-7.500000000000007
 20
1.3
 30
0.0
 11
-0.0000000000000071
 21
1.3
 31
0.0
  0
LINE
  5
40
330
23
100
AcDbEntity
  8
TITLE
100
AcDbLine
 10
-7.500000000000007
 20
0.8
 30
0.0
 11
-0.0000000000000071
 21
0.8
 31
0.0
  0
LINE
  5
41
330
23
100
AcDbEntity
  8
TITLE
100
AcDbLine
 10
-7.500000000000007
 20
0.0
 30
0.0
 11
-0.0000000000000071
 21
0.0
 31
0.0
  0
LINE
  5
42
330
23
100
AcDbEntity
  8
0
100
AcDbLine
 10
-0.0000000000000071
 20
0.0
 30
0.0
 11
-0.0000000000000071
 21
3.6
 31
0.0
  0
LINE
  5
43
330
23
100
AcDbEntity
  8
TITLE
100
AcDbLine
 10
-0.0000000000000071
 20
3.6
 30
0.0
 11
-7.500000000000007
 21
3.6
 31
0.0
  0
LINE
  5
44
330
23
100
AcDbEntity
  8
TITLE
100
AcDbLine
 10
-7.500000000000007
 20
3.6
 30
0.0
 11
-7.500000000000007
 21
0.0
 31
0.0
  0
ENDBLK
  5
45
330
23
100
AcDbEntity
  8
TITLE
100
AcDbBlockEnd
  0
BLOCK
  5
5E
330
5D
100
AcDbEntity
  8
0
100
AcDbBlockBegin
  2
Bars
 70
     0
 10
0.0
 20
0.0
 30
0.0
  3
Bars
  1

  4
Resolution Bars
  0
MTEXT
  5
81
330
5D
100
AcDbEntity
  8
Bars
100
AcDbMText
 10
0.6238603944398165
 20
0.0493391945384474
 30
0.0
 40
2.5
 41
1.888
 71
     1
 72
     5
  1
{\fArial Narrow|b0|i0|c0|p34;1}
  7
ROMANT
 73
     1
 44
1.0
1001
ACAD
1000
MTEXTBEGIN
1070
    73
1070
     1
1070
    44
1040
1.0
1070
    74
1070
     0
1000
MTEXTEND
  0
LWPOLYLINE
  5
82
330
5D
100
AcDbEntity
  8
Bars
100
AcDbPolyline
 90
        2
 70
     0
 10
-4.75
 20
-0.0000000000000142
 40
0.5
 41
0.5
 10
-4.75
 20
-2.500000000000014
 40
1.0
 41
1.0
  0
LWPOLYLINE
  5
83
330
5D
100
AcDbEntity
  8
Bars
100
AcDbPolyline
 90
        2
 70
     0
 10
-5.75
 20
-0.0000000000000142
 40
0.5
 41
0.5
 10
-5.75
 20
-2.500000000000014
 40
1.0
 41
1.0
  0
LWPOLYLINE
  5
84
330
5D
100
AcDbEntity
  8
Bars
100
AcDbPolyline
 90
        2
 70
     0
 10
-2.499999999999985
 20
-0.25
 40
0.5
 41
0.5
 10
0.0000000000000142
 20
-0.25
 40
1.0
 41
1.0
  0
LWPOLYLINE
  5
85
330
5D
100
AcDbEntity
  8
Bars
100
AcDbPolyline
 90
        2
 70
     0
 10
-2.499999999999985
 20
-1.25
 40
0.5
 41
0.5
 10
0.0000000000000142
 20
-1.25
 40
1.0
 41
1.0
  0
LWPOLYLINE
  5
86
330
5D
100
AcDbEntity
  8
Bars
100
AcDbPolyline
 90
        2
 70
     0
 10
-2.499999999999985
 20
-2.25
 40
0.5
 41
0.5
 10
0.0000000000000142
 20
-2.25
 40
1.0
 41
1.0
  0
LWPOLYLINE
  5
87
330
5D
100
AcDbEntity
  8
Bars
100
AcDbPolyline
 90
        2
 70
     0
 10
-3.75
 20
-0.0000000000000142
 40
0.5
 41
0.5
 10
-3.75
 20
-2.500000000000014
 40
1.0
 41
1.0
  0
ENDBLK
  5
5F
330
5D
100
AcDbEntity
  8
0
100
AcDbBlockEnd
  0
BLOCK
  5
15E
330
15D
100
AcDbEntity
  8
0
100
AcDbBlockBegin
  2
Bars_right
 70
     0
 10
0.0
 20
0.0
 30
0.0
  3
Bars_right
  1

  4
Right side resolution bars
  0
MTEXT
  5
17B
330
15D
100
AcDbEntity
  8
Bars
100
AcDbMText
 10
1.0
 20
-2.5
 30
0.0
 40
2.5
 41
1.888
 71
     7
 72
     5
  1
{\fArial Narrow|b0|i0|c0|p34;1}
  7
ROMANT
 73
     1
 44
1.0
1001
ACAD
1000
MTEXTBEGIN
1070
    73
1070
     1
1070
    44
1040
1.0
1070
    74
1070
     0
1000
MTEXTEND
  0
CIRCLE
  5
17C
330
15D
100
AcDbEntity
  8
Align
100
AcDbCircle
 10
0.0
 20
0.0
 30
0.0
 40
0.1
  0
CIRCLE
  5
17D
330
15D
100
AcDbEntity
  8
Align
100
AcDbCircle
 10
-6.0
 20
0.0
 30
0.0
 40
0.1
  0
LWPOLYLINE
  5
17E
330
15D
100
AcDbEntity
  8
Bars
100
AcDbPolyline
 90
        2
 70
     0
 10
-2.5
 20
-0.25
 40
0.5
 41
0.5
 10
0.0
 20
-0.25
 40
1.0
 41
1.0
  0
LWPOLYLINE
  5
17F
330
15D
100
AcDbEntity
  8
Bars
100
AcDbPolyline
 90
        2
 70
     0
 10
-2.5
 20
-1.25
 40
0.5
 41
0.5
 10
0.0
 20
-1.25
 40
1.0
 41
1.0
  0
LWPOLYLINE
  5
180
330
15D
100
AcDbEntity
  8
Bars
100
AcDbPolyline
 90
        2
 70
     0
 10
-2.5
 20
-2.25
 40
0.5
 41
0.5
 10
0.0
 20
-2.25
 40
1.0
 41
1.0
  0
LWPOLYLINE
  5
181
330
15D
100
AcDbEntity
  8
Bars
100
AcDbPolyline
 90
        2
 70
     0
 10
-5.75
 20
-0.0000000000000142
 40
0.5
 41
0.5
 10
-5.75
 20
-2.500000000000014
 40
1.0
 41
1.0
  0
CIRCLE
  5
182
330
15D
100
AcDbEntity
  8
Align
100
AcDbCircle
 10
-6.0
 20
-3.25
 30
0.0
 40
0.1
  0
LWPOLYLINE
  5
183
330
15D
100
AcDbEntity
  8
Bars
100
AcDbPolyline
 90
        2
 70
     0
 10
-4.75
 20
-0.0000000000000142
 40
0.5
 41
0.5
 10
-4.75
 20
-2.500000000000014
 40
1.0
 41
1.0
  0
LWPOLYLINE
  5
184
330
15D
100
AcDbEntity
  8
Bars
100
AcDbPolyline
 90
        2
 70
     0
 10
-3.75
 20
-0.0000000000000142
 40
0.5
 41
0.5
 10
-3.75
 20
-2.500000000000014
 40
1.0
 41
1.0
  0
CIRCLE
  5
185
330
15D
100
AcDbEntity
  8
Align
100
AcDbCircle
 10
1.0
 20
-2.5
 30
0.0
 40
0.1
  0
CIRCLE
  5
186
330
15D
100
AcDbEntity
  8
Align
100
AcDbCircle
 10
0.0
 20
-2.5
 30
0.0
 40
0.1
  0
CIRCLE
  5
187
330
15D
100
AcDbEntity
  8
Align
100
AcDbCircle
 10
0.0
 20
-3.25
 30
0.0
 40
0.1
  0
ENDBLK
  5
15F
330
15D
100
AcDbEntity
  8
0
100
AcDbBlockEnd
  0
BLOCK
  5
199
330
198
100
AcDbEntity
  8
0
100
AcDbBlockBegin
  2
Bars_left
 70
     0
 10
0.0
 20
0.0
 30
0.0
  3
Bars_left
  1

  0
CIRCLE
  5
19B
330
198
100
AcDbEntity
  8
Align
100
AcDbCircle
 10
6.0
 20
0.0
 30
0.0
 40
0.1
  0
CIRCLE
  5
19C
330
198
100
AcDbEntity
  8
Align
100
AcDbCircle
 10
0.0
 20
0.0
 30
0.0
 40
0.1
  0
MTEXT
  5
19D
330
198
100
AcDbEntity
  8
Bars
100
AcDbMText
 10
-1.0
 20
-2.5
 30
0.0
 40
2.5
 41
2.249999999999994
 71
     9
 72
     5
  1
{\fArial Narrow|b0|i0|c0|p34;1}
  7
ROMANT
 73
     1
 44
1.0
1001
ACAD
1000
MTEXTBEGIN
1070
    73
1070
     1
1070
    44
1040
1.0
1070
    74
1070
     0
1000
MTEXTEND
  0
LWPOLYLINE
  5
19E
330
198
100
AcDbEntity
  8
Bars
100
AcDbPolyline
 90
        2
 70
     0
 10
4.75
 20
-0.0000000000000142
 40
0.5
 41
0.5
 10
4.75
 20
-2.500000000000014
 40
1.0
 41
1.0
  0
CIRCLE
  5
19F
330
198
100
AcDbEntity
  8
Align
100
AcDbCircle
 10
-1.0
 20
-2.5
 30
0.0
 40
0.1
  0
LWPOLYLINE
  5
1A0
330
198
100
AcDbEntity
  8
Bars
100
AcDbPolyline
 90
        2
 70
     0
 10
2.5
 20
-2.25
 40
0.5
 41
0.5
 10
0.0
 20
-2.25
 40
1.0
 41
1.0
  0
LWPOLYLINE
  5
1A1
330
198
100
AcDbEntity
  8
Bars
100
AcDbPolyline
 90
        2
 70
     0
 10
2.5
 20
-1.25
 40
0.5
 41
0.5
 10
0.0
 20
-1.25
 40
1.0
 41
1.0
  0
LWPOLYLINE
  5
1A2
330
198
100
AcDbEntity
  8
Bars
100
AcDbPolyline
 90
        2
 70
     0
 10
2.5
 20
-0.25
 40
0.5
 41
0.5
 10
0.0
 20
-0.25
 40
1.0
 41
1.0
  0
CIRCLE
  5
1A3
330
198
100
AcDbEntity
  8
Align
100
AcDbCircle
 10
0.0
 20
-2.5
 30
0.0
 40
0.1
  0
CIRCLE
  5
1A4
330
198
100
AcDbEntity
  8
Align
100
AcDbCircle
 10
0.0
 20
-3.25
 30
0.0
 40
0.1
  0
LWPOLYLINE
  5
1A5
330
198
100
AcDbEntity
  8
Bars
100
AcDbPolyline
 90
        2
 70
     0
 10
3.75
 20
-0.0000000000000142
 40
0.5
 41
0.5
 10
3.75
 20
-2.500000000000014
 40
1.0
 41
1.0
  0
CIRCLE
  5
1A6
330
198
100
AcDbEntity
  8
Align
100
AcDbCircle
 10
6.0
 20
-2.5
 30
0.0
 40
0.1
  0
LWPOLYLINE
  5
1A7
330
198
100
AcDbEntity
  8
Bars
100
AcDbPolyline
 90
        2
 70
     0
 10
5.75
 20
-0.0000000000000142
 40
0.5
 41
0.5
 10
5.75
 20
-2.500000000000014
 40
1.0
 41
1.0
  0
CIRCLE
  5
1A8
330
198
100
AcDbEntity
  8
Align
100
AcDbCircle
 10
6.0
 20
-3.25
 30
0.0
 40
0.1
  0
CIRCLE
  5
1A9
330
198
100
AcDbEntity
  8
Align
100
AcDbCircle
 10
7.0
 20
-2.5
 30
0.0
 40
0.1
  0
ENDBLK
  5
19A
330
198
100
AcDbEntity
  8
0
100
AcDbBlockEnd
  0
BLOCK
  5
340
330
33F
100
AcDbEntity
  8
0
100
AcDbBlockBegin
  2
Layer-0
 70
     0
 10
0.0
 20
0.0
 30
0.0
  3
Layer-0
  1

  4
Layer o resolution chart
  0
CIRCLE
  5
342
330
33F
100
AcDbEntity
  8
Align
100
AcDbCircle
 10
-2.654599999999987
 20
5.474950000000006
 30
0.0
 40
0.08909
  0
MTEXT
  5
343
330
33F
100
AcDbEntity
  8
Bars
100
AcDbMText
 10
-8.890899999999987
 20
3.247700000000008
 30
0.0
 40
2.22725
 41
2.004999999999999
 71
     9
 72
     5
  1
{\fArial Narrow|b0|i0|c0|p34;2}
  7
ROMANT
 73
     1
 44
1.0
1001
ACAD
1000
MTEXTBEGIN
1070
    73
1070
     1
1070
    44
1040
1.0
1070
    74
1070
     0
1000
MTEXTEND
  0
CIRCLE
  5
344
330
33F
100
AcDbEntity
  8
Align
100
AcDbCircle
 10
-8.0
 20
5.474950000000006
 30
0.0
 40
0.08909
  0
CIRCLE
  5
345
330
33F
100
AcDbEntity
  8
Align
100
AcDbCircle
 10
-2.654599999999987
 20
5.474950000000006
 30
0.0
 40
0.08909
  0
CIRCLE
  5
346
330
33F
100
AcDbEntity
  8
Align
100
AcDbCircle
 10
1.0
 20
5.474950000000006
 30
0.0
 40
0.05
  0
CIRCLE
  5
347
330
33F
100
AcDbEntity
  8
Align
100
AcDbCircle
 10
4.0
 20
5.474950000000006
 30
0.0
 40
0.05
  0
MTEXT
  5
348
330
33F
100
AcDbEntity
  8
Bars
100
AcDbMText
 10
4.5
 20
4.224950000000006
 30
0.0
 40
1.25
 41
0.9440000000000001
 71
     7
 72
     5
  1
{\fArial Narrow|b0|i0|c0|p34;1}
  7
ROMANT
 73
     1
 44
1.0
1001
ACAD
1000
MTEXTBEGIN
1070
    73
1070
     1
1070
    44
1040
1.0
1070
    74
1070
     0
1000
MTEXTEND
  0
MTEXT
  5
349
330
33F
100
AcDbEntity
  8
Bars
100
AcDbMText
 10
-8.629960000000011
 20
-3.873007499999999
 30
0.0
 40
1.5749
 41
1.416999999999999
 71
     9
 72
     5
  1
{\fArial Narrow|b0|i0|c0|p34;5}
  7
ROMANT
 73
     1
 44
1.0
1001
ACAD
1000
MTEXTBEGIN
1070
    73
1070
     1
1070
    44
1040
1.0
1070
    74
1070
     0
1000
MTEXTEND
  0
MTEXT
  5
34A
330
33F
100
AcDbEntity
  8
Bars
100
AcDbMText
 10
-8.70711
 20
-1.767775
 30
0.0
 40
1.767775
 41
1.591
 71
     9
 72
     5
  1
{\fArial Narrow|b0|i0|c0|p34;4}
  7
ROMANT
 73
     1
 44
1.0
1001
ACAD
1000
MTEXTBEGIN
1070
    73
1070
     1
1070
    44
1040
1.0
1070
    74
1070
     0
1000
MTEXTEND
  0
MTEXT
  5
34B
330
33F
100
AcDbEntity
  8
Bars
100
AcDbMText
 10
-8.793700000000001
 20
0.5952750000000009
 30
0.0
 40
1.984249999999999
 41
1.786
 71
     9
 72
     5
  1
{\fArial Narrow|b0|i0|c0|p34;3}
  7
ROMANT
 73
     1
 44
1.0
1001
ACAD
1000
MTEXTBEGIN
1070
    73
1070
     1
1070
    44
1040
1.0
1070
    74
1070
     0
1000
MTEXTEND
  0
LWPOLYLINE
  5
34C
330
33F
100
AcDbEntity
  8
Bars
100
AcDbPolyline
 90
        2
 70
     0
 10
-4.377729999999985
 20
-2.298107500000014
 40
0.31498
 41
0.31498
 10
-4.377729999999985
 20
-3.873007500000014
 40
0.6299600000000001
 41
0.6299600000000001
  0
LWPOLYLINE
  5
34D
330
33F
100
AcDbEntity
  8
Bars
100
AcDbPolyline
 90
        2
 70
     0
 10
-5.637650000000007
 20
-2.298107500000014
 40
0.31498
 41
0.31498
 10
-5.637650000000007
 20
-3.873007500000014
 40
0.6299600000000001
 41
0.6299600000000001
  0
LWPOLYLINE
  5
34E
330
33F
100
AcDbEntity
  8
Bars
100
AcDbPolyline
 90
        2
 70
     0
 10
-6.425099999999986
 20
-2.455597499999996
 40
0.31498
 41
0.31498
 10
-8.0
 20
-2.455597499999996
 40
0.6299600000000001
 41
0.6299600000000001
  0
LWPOLYLINE
  5
34F
330
33F
100
AcDbEntity
  8
Bars
100
AcDbPolyline
 90
        2
 70
     0
 10
-5.007689999999996
 20
-2.298107500000014
 40
0.31498
 41
0.31498
 10
-5.007689999999996
 20
-3.873007500000014
 40
0.6299600000000001
 41
0.6299600000000001
  0
CIRCLE
  5
350
330
33F
100
AcDbEntity
  8
Align
100
AcDbCircle
 10
-8.0
 20
-2.2981075
 30
0.0
 40
0.062996
  0
CIRCLE
  5
351
330
33F
100
AcDbEntity
  8
Align
100
AcDbCircle
 10
-4.220239999999989
 20
-2.2981075
 30
0.0
 40
0.062996
  0
CIRCLE
  5
352
330
33F
100
AcDbEntity
  8
Align
100
AcDbCircle
 10
-3.757339999999999
 20
-2.2981075
 30
0.0
 40
0.070711
  0
CIRCLE
  5
353
330
33F
100
AcDbEntity
  8
Align
100
AcDbCircle
 10
-8.0
 20
-2.2981075
 30
0.0
 40
0.070711
  0
CIRCLE
  5
354
330
33F
100
AcDbEntity
  8
Align
100
AcDbCircle
 10
-4.220239999999989
 20
-4.345477500000001
 30
0.0
 40
0.062996
  0
CIRCLE
  5
355
330
33F
100
AcDbEntity
  8
Align
100
AcDbCircle
 10
-4.220239999999989
 20
-3.873007499999999
 30
0.0
 40
0.062996
  0
LWPOLYLINE
  5
356
330
33F
100
AcDbEntity
  8
Bars
100
AcDbPolyline
 90
        2
 70
     0
 10
-6.596924999999998
 20
-4.485785000000007
 40
0.280615
 41
0.280615
 10
-8.0
 20
-4.485785000000007
 40
0.5612300000000001
 41
0.5612300000000001
  0
LWPOLYLINE
  5
357
330
33F
100
AcDbEntity
  8
Bars
100
AcDbPolyline
 90
        2
 70
     0
 10
-6.596924999999998
 20
-5.047015000000001
 40
0.280615
 41
0.280615
 10
-8.0
 20
-5.047015000000001
 40
0.5612300000000001
 41
0.5612300000000001
  0
LWPOLYLINE
  5
358
330
33F
100
AcDbEntity
  8
Bars
100
AcDbPolyline
 90
        2
 70
     0
 10
-6.596924999999998
 20
-5.608244999999996
 40
0.280615
 41
0.280615
 10
-8.0
 20
-5.608244999999996
 40
0.5612300000000001
 41
0.5612300000000001
  0
LWPOLYLINE
  5
359
330
33F
100
AcDbEntity
  8
Bars
100
AcDbPolyline
 90
        2
 70
     0
 10
-6.425099999999986
 20
-3.085557500000007
 40
0.31498
 41
0.31498
 10
-8.0
 20
-3.085557500000007
 40
0.6299600000000001
 41
0.6299600000000001
  0
LWPOLYLINE
  5
35A
330
33F
100
AcDbEntity
  8
Bars
100
AcDbPolyline
 90
        2
 70
     0
 10
-6.425099999999986
 20
-3.715517500000004
 40
0.31498
 41
0.31498
 10
-8.0
 20
-3.715517500000004
 40
0.6299600000000001
 41
0.6299600000000001
  0
MTEXT
  5
35B
330
33F
100
AcDbEntity
  8
Bars
100
AcDbMText
 10
-8.561229999999994
 20
-5.748552500000002
 30
0.0
 40
1.403075
 41
1.262999999999999
 71
     9
 72
     5
  1
{\fArial Narrow|b0|i0|c0|p34;6}
  7
ROMANT
 73
     1
 44
1.0
1001
ACAD
1000
MTEXTBEGIN
1070
    73
1070
     1
1070
    44
1040
1.0
1070
    74
1070
     0
1000
MTEXTEND
  0
CIRCLE
  5
35C
330
33F
100
AcDbEntity
  8
Align
100
AcDbCircle
 10
-8.0
 20
-6.169475000000005
 30
0.0
 40
0.056123
  0
CIRCLE
  5
35D
330
33F
100
AcDbEntity
  8
Align
100
AcDbCircle
 10
-8.0
 20
-5.748552500000002
 30
0.0
 40
0.056123
  0
CIRCLE
  5
35E
330
33F
100
AcDbEntity
  8
Align
100
AcDbCircle
 10
-8.561229999999994
 20
-5.748552500000002
 30
0.0
 40
0.056123
  0
CIRCLE
  5
35F
330
33F
100
AcDbEntity
  8
Align
100
AcDbCircle
 10
-8.0
 20
-4.345477500000001
 30
0.0
 40
0.056123
  0
CIRCLE
  5
360
330
33F
100
AcDbEntity
  8
Align
100
AcDbCircle
 10
-8.0
 20
-4.345477500000001
 30
0.0
 40
0.062996
  0
CIRCLE
  5
361
330
33F
100
AcDbEntity
  8
Align
100
AcDbCircle
 10
-8.0
 20
-3.873007499999999
 30
0.0
 40
0.062996
  0
CIRCLE
  5
362
330
33F
100
AcDbEntity
  8
Align
100
AcDbCircle
 10
-8.629960000000011
 20
-3.873007499999999
 30
0.0
 40
0.062996
  0
CIRCLE
  5
363
330
33F
100
AcDbEntity
  8
Align
100
AcDbCircle
 10
-4.632620000000002
 20
-6.169475000000005
 30
0.0
 40
0.056123
  0
LWPOLYLINE
  5
364
330
33F
100
AcDbEntity
  8
Bars
100
AcDbPolyline
 90
        2
 70
     0
 10
-4.772927500000008
 20
-4.345477500000015
 40
0.280615
 41
0.280615
 10
-4.772927500000008
 20
-5.748552500000002
 40
0.5612300000000001
 41
0.5612300000000001
  0
CIRCLE
  5
365
330
33F
100
AcDbEntity
  8
Align
100
AcDbCircle
 10
-4.632620000000002
 20
-5.748552500000002
 30
0.0
 40
0.056123
  0
LWPOLYLINE
  5
366
330
33F
100
AcDbEntity
  8
Bars
100
AcDbPolyline
 90
        2
 70
     0
 10
-5.895387499999998
 20
-4.345477500000015
 40
0.280615
 41
0.280615
 10
-5.895387499999998
 20
-5.748552500000002
 40
0.5612300000000001
 41
0.5612300000000001
  0
LWPOLYLINE
  5
367
330
33F
100
AcDbEntity
  8
Bars
100
AcDbPolyline
 90
        2
 70
     0
 10
-5.334157500000003
 20
-4.345477500000015
 40
0.280615
 41
0.280615
 10
-5.334157500000003
 20
-5.748552500000002
 40
0.5612300000000001
 41
0.5612300000000001
  0
CIRCLE
  5
368
330
33F
100
AcDbEntity
  8
Align
100
AcDbCircle
 10
-4.632620000000002
 20
-4.345477500000001
 30
0.0
 40
0.056123
  0
CIRCLE
  5
369
330
33F
100
AcDbEntity
  8
Align
100
AcDbCircle
 10
-2.0
 20
-6.498552500000002
 30
0.0
 40
0.1
  0
LWPOLYLINE
  5
36A
330
33F
100
AcDbEntity
  8
Bars
100
AcDbPolyline
 90
        2
 70
     0
 10
-1.75
 20
-3.248552500000016
 40
0.5
 41
0.5
 10
-1.75
 20
-5.748552500000016
 40
1.0
 41
1.0
  0
CIRCLE
  5
36B
330
33F
100
AcDbEntity
  8
Align
100
AcDbCircle
 10
-4.071390000000008
 20
-5.748552500000002
 30
0.0
 40
0.056123
  0
CIRCLE
  5
36C
330
33F
100
AcDbEntity
  8
Align
100
AcDbCircle
 10
-3.590280000000007
 20
-3.873007499999999
 30
0.0
 40
0.062996
  0
CIRCLE
  5
36D
330
33F
100
AcDbEntity
  8
Align
100
AcDbCircle
 10
-2.0
 20
-3.248552500000002
 30
0.0
 40
0.1
  0
LWPOLYLINE
  5
36E
330
33F
100
AcDbEntity
  8
Bars
100
AcDbPolyline
 90
        2
 70
     0
 10
0.25
 20
-3.248552500000016
 40
0.5
 41
0.5
 10
0.25
 20
-5.748552500000016
 40
1.0
 41
1.0
  0
LWPOLYLINE
  5
36F
330
33F
100
AcDbEntity
  8
Bars
100
AcDbPolyline
 90
        2
 70
     0
 10
-0.75
 20
-3.248552500000016
 40
0.5
 41
0.5
 10
-0.75
 20
-5.748552500000016
 40
1.0
 41
1.0
  0
LWPOLYLINE
  5
370
330
33F
100
AcDbEntity
  8
Bars
100
AcDbPolyline
 90
        2
 70
     0
 10
-4.229925000000008
 20
2.579524999999989
 40
0.39685
 41
0.39685
 10
-4.229925000000008
 20
0.5952749999999867
 40
0.7937
 41
0.7937
  0
LWPOLYLINE
  5
371
330
33F
100
AcDbEntity
  8
Bars
100
AcDbPolyline
 90
        2
 70
     0
 10
-5.023625000000009
 20
2.579524999999989
 40
0.39685
 41
0.39685
 10
-5.023625000000009
 20
0.5952749999999867
 40
0.7937
 41
0.7937
  0
LWPOLYLINE
  5
372
330
33F
100
AcDbEntity
  8
Bars
100
AcDbPolyline
 90
        2
 70
     0
 10
-6.015749999999997
 20
1.587400000000002
 40
0.39685
 41
0.39685
 10
-8.0
 20
1.587400000000002
 40
0.7937
 41
0.7937
  0
LWPOLYLINE
  5
373
330
33F
100
AcDbEntity
  8
Bars
100
AcDbPolyline
 90
        2
 70
     0
 10
-6.015749999999997
 20
0.7937000000000012
 40
0.39685
 41
0.39685
 10
-8.0
 20
0.7937000000000012
 40
0.7937
 41
0.7937
  0
LWPOLYLINE
  5
374
330
33F
100
AcDbEntity
  8
Bars
100
AcDbPolyline
 90
        2
 70
     0
 10
-6.232224999999999
 20
-0.1767775
 40
0.353555
 41
0.353555
 10
-8.0
 20
-0.1767775
 40
0.7071100000000001
 41
0.7071100000000001
  0
LWPOLYLINE
  5
375
330
33F
100
AcDbEntity
  8
Bars
100
AcDbPolyline
 90
        2
 70
     0
 10
-6.232224999999999
 20
-0.8838875000000001
 40
0.353555
 41
0.353555
 10
-8.0
 20
-0.8838875000000001
 40
0.7071100000000001
 41
0.7071100000000001
  0
LWPOLYLINE
  5
376
330
33F
100
AcDbEntity
  8
Bars
100
AcDbPolyline
 90
        2
 70
     0
 10
-6.232224999999999
 20
-1.5909975
 40
0.353555
 41
0.353555
 10
-8.0
 20
-1.5909975
 40
0.7071100000000001
 41
0.7071100000000001
  0
CIRCLE
  5
377
330
33F
100
AcDbEntity
  8
Align
100
AcDbCircle
 10
-8.0
 20
0.0
 30
0.0
 40
0.07937
  0
CIRCLE
  5
378
330
33F
100
AcDbEntity
  8
Align
100
AcDbCircle
 10
-8.0
 20
0.5952750000000009
 30
0.0
 40
0.07937
  0
CIRCLE
  5
379
330
33F
100
AcDbEntity
  8
Align
100
AcDbCircle
 10
-8.793700000000001
 20
0.5952750000000009
 30
0.0
 40
0.07937
  0
CIRCLE
  5
37A
330
33F
100
AcDbEntity
  8
Align
100
AcDbCircle
 10
-8.0
 20
-1.767775
 30
0.0
 40
0.070711
  0
CIRCLE
  5
37B
330
33F
100
AcDbEntity
  8
Align
100
AcDbCircle
 10
-8.70711
 20
-1.767775
 30
0.0
 40
0.070711
  0
CIRCLE
  5
37C
330
33F
100
AcDbEntity
  8
Align
100
AcDbCircle
 10
-8.0
 20
0.0
 30
0.0
 40
0.070711
  0
LWPOLYLINE
  5
37D
330
33F
100
AcDbEntity
  8
Bars
100
AcDbPolyline
 90
        2
 70
     0
 10
-5.348337500000013
 20
-0.0000000000000142
 40
0.353555
 41
0.353555
 10
-5.348337500000013
 20
-1.767775000000014
 40
0.7071100000000001
 41
0.7071100000000001
  0
LWPOLYLINE
  5
37E
330
33F
100
AcDbEntity
  8
Bars
100
AcDbPolyline
 90
        2
 70
     0
 10
-4.641227500000013
 20
-0.0000000000000142
 40
0.353555
 41
0.353555
 10
-4.641227500000013
 20
-1.767775000000014
 40
0.7071100000000001
 41
0.7071100000000001
  0
LWPOLYLINE
  5
37F
330
33F
100
AcDbEntity
  8
Bars
100
AcDbPolyline
 90
        2
 70
     0
 10
-5.772750000000002
 20
5.252225000000009
 40
0.4454500000000001
 41
0.4454500000000001
 10
-8.0
 20
5.252225000000009
 40
0.8909
 41
0.8909
  0
LWPOLYLINE
  5
380
330
33F
100
AcDbEntity
  8
Bars
100
AcDbPolyline
 90
        2
 70
     0
 10
-5.772750000000002
 20
4.361325000000007
 40
0.4454500000000001
 41
0.4454500000000001
 10
-8.0
 20
4.361325000000007
 40
0.8909
 41
0.8909
  0
LWPOLYLINE
  5
381
330
33F
100
AcDbEntity
  8
Bars
100
AcDbPolyline
 90
        2
 70
     0
 10
-5.772750000000002
 20
3.470425000000005
 40
0.4454500000000001
 41
0.4454500000000001
 10
-8.0
 20
3.470425000000005
 40
0.8909
 41
0.8909
  0
LWPOLYLINE
  5
382
330
33F
100
AcDbEntity
  8
Bars
100
AcDbPolyline
 90
        2
 70
     0
 10
-6.015749999999997
 20
2.381100000000003
 40
0.39685
 41
0.39685
 10
-8.0
 20
2.381100000000003
 40
0.7937
 41
0.7937
  0
CIRCLE
  5
383
330
33F
100
AcDbEntity
  8
Align
100
AcDbCircle
 10
-8.0
 20
2.579525000000003
 30
0.0
 40
0.08909
  0
CIRCLE
  5
384
330
33F
100
AcDbEntity
  8
Align
100
AcDbCircle
 10
-8.0
 20
3.247700000000008
 30
0.0
 40
0.08909
  0
CIRCLE
  5
385
330
33F
100
AcDbEntity
  8
Align
100
AcDbCircle
 10
-8.890899999999987
 20
3.247700000000008
 30
0.0
 40
0.08909
  0
CIRCLE
  5
386
330
33F
100
AcDbEntity
  8
Align
100
AcDbCircle
 10
-8.0
 20
2.579525000000003
 30
0.0
 40
0.07937
  0
LWPOLYLINE
  5
387
330
33F
100
AcDbEntity
  8
Bars
100
AcDbPolyline
 90
        2
 70
     0
 10
-4.659124999999988
 20
5.474949999999992
 40
0.4454500000000001
 41
0.4454500000000001
 10
-4.659124999999988
 20
3.247699999999994
 40
0.8909
 41
0.8909
  0
LWPOLYLINE
  5
388
330
33F
100
AcDbEntity
  8
Bars
100
AcDbPolyline
 90
        2
 70
     0
 10
-3.436225000000007
 20
2.579524999999989
 40
0.39685
 41
0.39685
 10
-3.436225000000007
 20
0.5952749999999867
 40
0.7937
 41
0.7937
  0
CIRCLE
  5
389
330
33F
100
AcDbEntity
  8
Align
100
AcDbCircle
 10
-2.444099999999991
 20
0.5952750000000009
 30
0.0
 40
0.07937
  0
CIRCLE
  5
38A
330
33F
100
AcDbEntity
  8
Align
100
AcDbCircle
 10
-3.237799999999992
 20
0.0
 30
0.0
 40
0.07937
  0
CIRCLE
  5
38B
330
33F
100
AcDbEntity
  8
Align
100
AcDbCircle
 10
-3.237799999999992
 20
0.5952750000000009
 30
0.0
 40
0.07937
  0
CIRCLE
  5
38C
330
33F
100
AcDbEntity
  8
Align
100
AcDbCircle
 10
-3.050229999999999
 20
-1.767775
 30
0.0
 40
0.070711
  0
LWPOLYLINE
  5
38D
330
33F
100
AcDbEntity
  8
Bars
100
AcDbPolyline
 90
        2
 70
     0
 10
-3.934117500000013
 20
-0.0000000000000142
 40
0.353555
 41
0.353555
 10
-3.934117500000013
 20
-1.767775000000014
 40
0.7071100000000001
 41
0.7071100000000001
  0
CIRCLE
  5
38E
330
33F
100
AcDbEntity
  8
Align
100
AcDbCircle
 10
-3.757339999999999
 20
-1.767775
 30
0.0
 40
0.070711
  0
CIRCLE
  5
38F
330
33F
100
AcDbEntity
  8
Align
100
AcDbCircle
 10
-3.757339999999999
 20
0.0
 30
0.0
 40
0.070711
  0
CIRCLE
  5
390
330
33F
100
AcDbEntity
  8
Align
100
AcDbCircle
 10
0.0
 20
0.0
 30
0.0
 40
0.3875423749477988
  0
CIRCLE
  5
391
330
33F
100
AcDbEntity
  8
Align
100
AcDbCircle
 10
-1.7637
 20
3.247700000000008
 30
0.0
 40
0.08909
  0
LWPOLYLINE
  5
392
330
33F
100
AcDbEntity
  8
Bars
100
AcDbPolyline
 90
        4
 70
     1
 43
0.0
 10
0.4635499999999979
 20
5.474950000000006
 10
-1.7637
 20
5.474950000000006
 10
-1.7637
 20
3.247700000000008
 10
0.4635499999999979
 20
3.247700000000008
  0
LWPOLYLINE
  5
393
330
33F
100
AcDbEntity
  8
Bars
100
AcDbPolyline
 90
        2
 70
     0
 43
2.227250000000026
 10
-0.6500750000000153
 20
5.474950000000006
 10
-0.6500750000000153
 20
3.247700000000008
  0
CIRCLE
  5
394
330
33F
100
AcDbEntity
  8
Align
100
AcDbCircle
 10
-2.654599999999987
 20
2.579525000000003
 30
0.0
 40
0.08909
  0
LWPOLYLINE
  5
395
330
33F
100
AcDbEntity
  8
Bars
100
AcDbPolyline
 90
        2
 70
     0
 10
-2.877325000000013
 20
5.474949999999992
 40
0.4454500000000001
 41
0.4454500000000001
 10
-2.877325000000013
 20
3.247699999999994
 40
0.8909
 41
0.8909
  0
CIRCLE
  5
396
330
33F
100
AcDbEntity
  8
Align
100
AcDbCircle
 10
-2.654599999999987
 20
3.247700000000008
 30
0.0
 40
0.08909
  0
LWPOLYLINE
  5
397
330
33F
100
AcDbEntity
  8
Bars
100
AcDbPolyline
 90
        2
 70
     0
 10
-3.768225000000001
 20
5.474949999999992
 40
0.4454500000000001
 41
0.4454500000000001
 10
-3.768225000000001
 20
3.247699999999994
 40
0.8909
 41
0.8909
  0
CIRCLE
  5
398
330
33F
100
AcDbEntity
  8
Align
100
AcDbCircle
 10
-3.237799999999992
 20
2.579525000000003
 30
0.0
 40
0.07937
  0
MTEXT
  5
399
330
33F
100
AcDbEntity
  8
Bars
100
AcDbMText
 10
5.0
 20
-5.748552500000002
 30
0.0
 40
2.5
 41
1.888
 71
     7
 72
     5
  1
{\fArial Narrow|b0|i0|c0|p34;1}
  7
ROMANT
 73
     1
 44
1.0
1001
ACAD
1000
MTEXTBEGIN
1070
    73
1070
     1
1070
    44
1040
1.0
1070
    74
1070
     0
1000
MTEXTEND
  0
CIRCLE
  5
39A
330
33F
100
AcDbEntity
  8
Align
100
AcDbCircle
 10
4.0
 20
-6.498552500000002
 30
0.0
 40
0.1
  0
LWPOLYLINE
  5
39B
330
33F
100
AcDbEntity
  8
Bars
100
AcDbPolyline
 90
        2
 70
     0
 10
1.5
 20
-5.498552500000002
 40
0.5
 41
0.5
 10
4.0
 20
-5.498552500000002
 40
1.0
 41
1.0
  0
LWPOLYLINE
  5
39C
330
33F
100
AcDbEntity
  8
Bars
100
AcDbPolyline
 90
        2
 70
     0
 10
1.5
 20
-4.498552500000002
 40
0.5
 41
0.5
 10
4.0
 20
-4.498552500000002
 40
1.0
 41
1.0
  0
LWPOLYLINE
  5
39D
330
33F
100
AcDbEntity
  8
Bars
100
AcDbPolyline
 90
        2
 70
     0
 10
1.5
 20
-3.498552500000002
 40
0.5
 41
0.5
 10
4.0
 20
-3.498552500000002
 40
1.0
 41
1.0
  0
CIRCLE
  5
39E
330
33F
100
AcDbEntity
  8
Align
100
AcDbCircle
 10
4.0
 20
-5.748552500000002
 30
0.0
 40
0.1
  0
CIRCLE
  5
39F
330
33F
100
AcDbEntity
  8
Align
100
AcDbCircle
 10
5.0
 20
-5.748552500000002
 30
0.0
 40
0.1
  0
CIRCLE
  5
3A0
330
33F
100
AcDbEntity
  8
Align
100
AcDbCircle
 10
4.0
 20
-3.248552500000002
 30
0.0
 40
0.1
  0
MTEXT
  5
3A1
330
33F
100
AcDbEntity
  8
Bars
100
AcDbMText
 10
4.39685
 20
1.41011250000001
 30
0.0
 40
0.9921249999999998
 41
0.7490000000000001
 71
     7
 72
     5
  1
{\fArial Narrow|b0|i0|c0|p34;3}
  7
ROMANT
 73
     1
 44
1.0
1001
ACAD
1000
MTEXTBEGIN
1070
    73
1070
     1
1070
    44
1040
1.0
1070
    74
1070
     0
1000
MTEXTEND
  0
LWPOLYLINE
  5
3A2
330
33F
100
AcDbEntity
  8
Bars
100
AcDbPolyline
 90
        2
 70
     0
 10
2.51181249999999
 20
2.402237500000012
 40
0.198425
 41
0.198425
 10
2.51181249999999
 20
1.41011250000001
 40
0.39685
 41
0.39685
  0
LWPOLYLINE
  5
3A3
330
33F
100
AcDbEntity
  8
Bars
100
AcDbPolyline
 90
        2
 70
     0
 10
2.11496249999999
 20
2.402237500000012
 40
0.198425
 41
0.198425
 10
2.11496249999999
 20
1.41011250000001
 40
0.39685
 41
0.39685
  0
LWPOLYLINE
  5
3A4
330
33F
100
AcDbEntity
  8
Bars
100
AcDbPolyline
 90
        2
 70
     0
 10
1.718112499999989
 20
2.402237500000012
 40
0.198425
 41
0.198425
 10
1.718112499999989
 20
1.41011250000001
 40
0.39685
 41
0.39685
  0
LWPOLYLINE
  5
3A5
330
33F
100
AcDbEntity
  8
Bars
100
AcDbPolyline
 90
        2
 70
     0
 10
3.007875000000012
 20
1.509325000000018
 40
0.198425
 41
0.198425
 10
4.0
 20
1.509325000000018
 40
0.39685
 41
0.39685
  0
LWPOLYLINE
  5
3A6
330
33F
100
AcDbEntity
  8
Bars
100
AcDbPolyline
 90
        2
 70
     0
 10
3.298462499999999
 20
-1.691647499999987
 40
0.1403075
 41
0.1403075
 10
4.0
 20
-1.691647499999987
 40
0.280615
 41
0.280615
  0
LWPOLYLINE
  5
3A7
330
33F
100
AcDbEntity
  8
Bars
100
AcDbPolyline
 90
        2
 70
     0
 10
3.298462499999999
 20
-1.41103249999999
 40
0.1403075
 41
0.1403075
 10
4.0
 20
-1.41103249999999
 40
0.280615
 41
0.280615
  0
LWPOLYLINE
  5
3A8
330
33F
100
AcDbEntity
  8
Bars
100
AcDbPolyline
 90
        2
 70
     0
 10
3.298462499999999
 20
-1.130417499999992
 40
0.1403075
 41
0.1403075
 10
4.0
 20
-1.130417499999992
 40
0.280615
 41
0.280615
  0
LWPOLYLINE
  5
3A9
330
33F
100
AcDbEntity
  8
Bars
100
AcDbPolyline
 90
        2
 70
     0
 10
3.212549999999993
 20
-0.7452837499999845
 40
0.15749
 41
0.15749
 10
4.0
 20
-0.7452837499999845
 40
0.31498
 41
0.31498
  0
LWPOLYLINE
  5
3AA
330
33F
100
AcDbEntity
  8
Bars
100
AcDbPolyline
 90
        2
 70
     0
 10
3.212549999999993
 20
-0.4303037499999931
 40
0.15749
 41
0.15749
 10
4.0
 20
-0.4303037499999931
 40
0.31498
 41
0.31498
  0
LWPOLYLINE
  5
3AB
330
33F
100
AcDbEntity
  8
Bars
100
AcDbPolyline
 90
        2
 70
     0
 10
3.212549999999993
 20
-0.1153237499999875
 40
0.15749
 41
0.15749
 10
4.0
 20
-0.1153237499999875
 40
0.31498
 41
0.31498
  0
LWPOLYLINE
  5
3AC
330
33F
100
AcDbEntity
  8
Bars
100
AcDbPolyline
 90
        2
 70
     0
 10
3.116112500000014
 20
0.3169762500000104
 40
0.1767775
 41
0.1767775
 10
4.0
 20
0.3169762500000104
 40
0.353555
 41
0.353555
  0
LWPOLYLINE
  5
3AD
330
33F
100
AcDbEntity
  8
Bars
100
AcDbPolyline
 90
        2
 70
     0
 10
3.116112500000014
 20
0.6705312500000105
 40
0.1767775
 41
0.1767775
 10
4.0
 20
0.6705312500000105
 40
0.353555
 41
0.353555
  0
LWPOLYLINE
  5
3AE
330
33F
100
AcDbEntity
  8
Bars
100
AcDbPolyline
 90
        2
 70
     0
 10
3.116112500000014
 20
1.02408625000001
 40
0.1767775
 41
0.1767775
 10
4.0
 20
1.02408625000001
 40
0.353555
 41
0.353555
  0
LWPOLYLINE
  5
3AF
330
33F
100
AcDbEntity
  8
Bars
100
AcDbPolyline
 90
        2
 70
     0
 10
2.947693750000013
 20
-1.06026374999999
 40
0.1403075
 41
0.1403075
 10
2.947693750000013
 20
-1.76180124999999
 40
0.280615
 41
0.280615
  0
LWPOLYLINE
  5
3B0
330
33F
100
AcDbEntity
  8
Bars
100
AcDbPolyline
 90
        2
 70
     0
 10
2.667078750000001
 20
-1.06026374999999
 40
0.1403075
 41
0.1403075
 10
2.667078750000001
 20
-1.76180124999999
 40
0.280615
 41
0.280615
  0
CIRCLE
  5
3B1
330
33F
100
AcDbEntity
  8
Align
100
AcDbCircle
 10
2.316309999999987
 20
-1.972262499999985
 30
0.0
 40
0.0280615
  0
LWPOLYLINE
  5
3B2
330
33F
100
AcDbEntity
  8
Bars
100
AcDbPolyline
 90
        2
 70
     0
 10
2.38646374999999
 20
-1.06026374999999
 40
0.1403075
 41
0.1403075
 10
2.38646374999999
 20
-1.76180124999999
 40
0.280615
 41
0.280615
  0
CIRCLE
  5
3B3
330
33F
100
AcDbEntity
  8
Align
100
AcDbCircle
 10
2.316309999999987
 20
-1.06026374999999
 30
0.0
 40
0.0280615
  0
LWPOLYLINE
  5
3B4
330
33F
100
AcDbEntity
  8
Bars
100
AcDbPolyline
 90
        2
 70
     0
 10
2.818825000000003
 20
-0.0365787499999897
 40
0.15749
 41
0.15749
 10
2.818825000000003
 20
-0.8240287499999965
 40
0.31498
 41
0.31498
  0
LWPOLYLINE
  5
3B5
330
33F
100
AcDbEntity
  8
Bars
100
AcDbPolyline
 90
        2
 70
     0
 10
2.503845000000012
 20
-0.0365787499999897
 40
0.15749
 41
0.15749
 10
2.503845000000012
 20
-0.8240287499999965
 40
0.31498
 41
0.31498
  0
CIRCLE
  5
3B6
330
33F
100
AcDbEntity
  8
Align
100
AcDbCircle
 10
2.110119999999994
 20
-1.06026374999999
 30
0.0
 40
0.031498
  0
LWPOLYLINE
  5
3B7
330
33F
100
AcDbEntity
  8
Bars
100
AcDbPolyline
 90
        2
 70
     0
 10
2.188864999999992
 20
-0.0365787499999897
 40
0.15749
 41
0.15749
 10
2.188864999999992
 20
-0.8240287499999965
 40
0.31498
 41
0.31498
  0
CIRCLE
  5
3B8
330
33F
100
AcDbEntity
  8
Align
100
AcDbCircle
 10
2.110119999999994
 20
-0.0365787499999897
 30
0.0
 40
0.031498
  0
LWPOLYLINE
  5
3B9
330
33F
100
AcDbEntity
  8
Bars
100
AcDbPolyline
 90
        2
 70
     0
 10
2.674168750000006
 20
1.112475000000003
 40
0.1767775
 41
0.1767775
 10
2.674168750000006
 20
0.2285875000000033
 40
0.353555
 41
0.353555
  0
LWPOLYLINE
  5
3BA
330
33F
100
AcDbEntity
  8
Bars
100
AcDbPolyline
 90
        2
 70
     0
 10
2.320613750000006
 20
1.112475000000003
 40
0.1767775
 41
0.1767775
 10
2.320613750000006
 20
0.2285875000000033
 40
0.353555
 41
0.353555
  0
CIRCLE
  5
3BB
330
33F
100
AcDbEntity
  8
Align
100
AcDbCircle
 10
1.878669999999999
 20
-0.0365787499999897
 30
0.0
 40
0.0353555
  0
LWPOLYLINE
  5
3BC
330
33F
100
AcDbEntity
  8
Bars
100
AcDbPolyline
 90
        2
 70
     0
 10
1.967058750000006
 20
1.112475000000003
 40
0.1767775
 41
0.1767775
 10
1.967058750000006
 20
0.2285875000000033
 40
0.353555
 41
0.353555
  0
CIRCLE
  5
3BD
330
33F
100
AcDbEntity
  8
Align
100
AcDbCircle
 10
1.878669999999999
 20
1.112475000000003
 30
0.0
 40
0.0353555
  0
CIRCLE
  5
3BE
330
33F
100
AcDbEntity
  8
Align
100
AcDbCircle
 10
1.618899999999996
 20
1.112475000000017
 30
0.0
 40
0.039685
  0
MTEXT
  5
3BF
330
33F
100
AcDbEntity
  8
Bars
100
AcDbMText
 10
4.280615000000011
 20
-1.76180124999999
 30
0.0
 40
0.7015375000000001
 41
0.5300000000000001
 71
     7
 72
     5
  1
{\fArial Narrow|b0|i0|c0|p34;6}
  7
ROMANT
 73
     1
 44
1.0
1001
ACAD
1000
MTEXTBEGIN
1070
    73
1070
     1
1070
    44
1040
1.0
1070
    74
1070
     0
1000
MTEXTEND
  0
MTEXT
  5
3C0
330
33F
100
AcDbEntity
  8
Bars
100
AcDbMText
 10
4.314979999999991
 20
-0.8240287499999965
 30
0.0
 40
0.7874500000000002
 41
0.595
 71
     7
 72
     5
  1
{\fArial Narrow|b0|i0|c0|p34;5}
  7
ROMANT
 73
     1
 44
1.0
1001
ACAD
1000
MTEXTBEGIN
1070
    73
1070
     1
1070
    44
1040
1.0
1070
    74
1070
     0
1000
MTEXTEND
  0
MTEXT
  5
3C1
330
33F
100
AcDbEntity
  8
Bars
100
AcDbMText
 10
4.353555
 20
0.2285875000000033
 30
0.0
 40
0.8838874999999999
 41
0.668
 71
     7
 72
     5
  1
{\fArial Narrow|b0|i0|c0|p34;4}
  7
ROMANT
 73
     1
 44
1.0
1001
ACAD
1000
MTEXTBEGIN
1070
    73
1070
     1
1070
    44
1040
1.0
1070
    74
1070
     0
1000
MTEXTEND
  0
CIRCLE
  5
3C2
330
33F
100
AcDbEntity
  8
Align
100
AcDbCircle
 10
4.0
 20
-1.972262499999985
 30
0.0
 40
0.0280615
  0
CIRCLE
  5
3C3
330
33F
100
AcDbEntity
  8
Align
100
AcDbCircle
 10
4.0
 20
-1.76180124999999
 30
0.0
 40
0.0280615
  0
CIRCLE
  5
3C4
330
33F
100
AcDbEntity
  8
Align
100
AcDbCircle
 10
4.280615000000011
 20
-1.76180124999999
 30
0.0
 40
0.0280615
  0
CIRCLE
  5
3C5
330
33F
100
AcDbEntity
  8
Align
100
AcDbCircle
 10
4.0
 20
-1.06026374999999
 30
0.0
 40
0.0280615
  0
CIRCLE
  5
3C6
330
33F
100
AcDbEntity
  8
Align
100
AcDbCircle
 10
4.0
 20
-1.06026374999999
 30
0.0
 40
0.031498
  0
CIRCLE
  5
3C7
330
33F
100
AcDbEntity
  8
Align
100
AcDbCircle
 10
4.0
 20
-0.8240287499999965
 30
0.0
 40
0.031498
  0
CIRCLE
  5
3C8
330
33F
100
AcDbEntity
  8
Align
100
AcDbCircle
 10
4.314979999999991
 20
-0.8240287499999965
 30
0.0
 40
0.031498
  0
CIRCLE
  5
3C9
330
33F
100
AcDbEntity
  8
Align
100
AcDbCircle
 10
4.0
 20
-0.0365787499999897
 30
0.0
 40
0.031498
  0
CIRCLE
  5
3CA
330
33F
100
AcDbEntity
  8
Align
100
AcDbCircle
 10
4.0
 20
-0.0365787499999897
 30
0.0
 40
0.0353555
  0
CIRCLE
  5
3CB
330
33F
100
AcDbEntity
  8
Align
100
AcDbCircle
 10
4.0
 20
0.2285875000000033
 30
0.0
 40
0.0353555
  0
CIRCLE
  5
3CC
330
33F
100
AcDbEntity
  8
Align
100
AcDbCircle
 10
4.353555
 20
0.2285875000000033
 30
0.0
 40
0.0353555
  0
CIRCLE
  5
3CD
330
33F
100
AcDbEntity
  8
Align
100
AcDbCircle
 10
4.0
 20
1.112475000000003
 30
0.0
 40
0.0353555
  0
CIRCLE
  5
3CE
330
33F
100
AcDbEntity
  8
Align
100
AcDbCircle
 10
4.0
 20
1.112475000000017
 30
0.0
 40
0.039685
  0
CIRCLE
  5
3CF
330
33F
100
AcDbEntity
  8
Align
100
AcDbCircle
 10
4.0
 20
1.41011250000001
 30
0.0
 40
0.039685
  0
CIRCLE
  5
3D0
330
33F
100
AcDbEntity
  8
Align
100
AcDbCircle
 10
4.39685
 20
1.41011250000001
 30
0.0
 40
0.039685
  0
LWPOLYLINE
  5
3D1
330
33F
100
AcDbEntity
  8
Bars
100
AcDbPolyline
 90
        2
 70
     0
 10
2.886374999999986
 20
2.847687500000006
 40
0.222725
 41
0.222725
 10
4.0
 20
2.847687500000006
 40
0.4454500000000001
 41
0.4454500000000001
  0
LWPOLYLINE
  5
3D2
330
33F
100
AcDbEntity
  8
Bars
100
AcDbPolyline
 90
        2
 70
     0
 10
2.886374999999986
 20
3.2931375
 40
0.222725
 41
0.222725
 10
4.0
 20
3.2931375
 40
0.4454500000000001
 41
0.4454500000000001
  0
LWPOLYLINE
  5
3D3
330
33F
100
AcDbEntity
  8
Bars
100
AcDbPolyline
 90
        2
 70
     0
 10
2.886374999999986
 20
3.738587500000008
 40
0.222725
 41
0.222725
 10
4.0
 20
3.738587500000008
 40
0.4454500000000001
 41
0.4454500000000001
  0
LWPOLYLINE
  5
3D4
330
33F
100
AcDbEntity
  8
Bars
100
AcDbPolyline
 90
        2
 70
     0
 10
3.007875000000012
 20
1.906175000000018
 40
0.198425
 41
0.198425
 10
4.0
 20
1.906175000000018
 40
0.39685
 41
0.39685
  0
LWPOLYLINE
  5
3D5
330
33F
100
AcDbEntity
  8
Bars
100
AcDbPolyline
 90
        2
 70
     0
 10
3.007875000000012
 20
2.303025000000019
 40
0.198425
 41
0.198425
 10
4.0
 20
2.303025000000019
 40
0.39685
 41
0.39685
  0
LWPOLYLINE
  5
3D6
330
33F
100
AcDbEntity
  8
Bars
100
AcDbPolyline
 90
        2
 70
     0
 10
2.75
 20
4.349950000000006
 40
0.25
 41
0.25
 10
4.0
 20
4.349950000000006
 40
0.5
 41
0.5
  0
LWPOLYLINE
  5
3D7
330
33F
100
AcDbEntity
  8
Bars
100
AcDbPolyline
 90
        2
 70
     0
 10
2.75
 20
4.849950000000006
 40
0.25
 41
0.25
 10
4.0
 20
4.849950000000006
 40
0.5
 41
0.5
  0
LWPOLYLINE
  5
3D8
330
33F
100
AcDbEntity
  8
Bars
100
AcDbPolyline
 90
        2
 70
     0
 10
2.75
 20
5.349950000000006
 40
0.25
 41
0.25
 10
4.0
 20
5.349950000000006
 40
0.5
 41
0.5
  0
LWPOLYLINE
  5
3D9
330
33F
100
AcDbEntity
  8
Bars
100
AcDbPolyline
 90
        2
 70
     0
 10
2.329562500000008
 20
3.849950000000006
 40
0.222725
 41
0.222725
 10
2.329562500000008
 20
2.736324999999993
 40
0.4454500000000001
 41
0.4454500000000001
  0
LWPOLYLINE
  5
3DA
330
33F
100
AcDbEntity
  8
Bars
100
AcDbPolyline
 90
        2
 70
     0
 10
1.884112499999986
 20
3.849950000000006
 40
0.222725
 41
0.222725
 10
1.884112499999986
 20
2.736324999999993
 40
0.4454500000000001
 41
0.4454500000000001
  0
CIRCLE
  5
3DB
330
33F
100
AcDbEntity
  8
Align
100
AcDbCircle
 10
1.327300000000008
 20
2.402237500000012
 30
0.0
 40
0.044545
  0
LWPOLYLINE
  5
3DC
330
33F
100
AcDbEntity
  8
Bars
100
AcDbPolyline
 90
        2
 70
     0
 10
1.438662499999992
 20
3.849950000000006
 40
0.222725
 41
0.222725
 10
1.438662499999992
 20
2.736324999999993
 40
0.4454500000000001
 41
0.4454500000000001
  0
CIRCLE
  5
3DD
330
33F
100
AcDbEntity
  8
Align
100
AcDbCircle
 10
1.327300000000008
 20
3.849950000000006
 30
0.0
 40
0.044545
  0
CIRCLE
  5
3DE
330
33F
100
AcDbEntity
  8
Align
100
AcDbCircle
 10
1.618899999999996
 20
2.402237500000012
 30
0.0
 40
0.039685
  0
LWPOLYLINE
  5
3DF
330
33F
100
AcDbEntity
  8
Bars
100
AcDbPolyline
 90
        2
 70
     0
 10
2.125
 20
5.474950000000006
 40
0.25
 41
0.25
 10
2.125
 20
4.224950000000006
 40
0.5
 41
0.5
  0
LWPOLYLINE
  5
3E0
330
33F
100
AcDbEntity
  8
Bars
100
AcDbPolyline
 90
        2
 70
     0
 10
1.625
 20
5.474950000000006
 40
0.25
 41
0.25
 10
1.625
 20
4.224950000000006
 40
0.5
 41
0.5
  0
CIRCLE
  5
3E1
330
33F
100
AcDbEntity
  8
Align
100
AcDbCircle
 10
1.0
 20
3.849950000000006
 30
0.0
 40
0.05
  0
LWPOLYLINE
  5
3E2
330
33F
100
AcDbEntity
  8
Bars
100
AcDbPolyline
 90
        2
 70
     0
 10
1.125
 20
5.474950000000006
 40
0.25
 41
0.25
 10
1.125
 20
4.224950000000006
 40
0.5
 41
0.5
  0
MTEXT
  5
3E3
330
33F
100
AcDbEntity
  8
Bars
100
AcDbMText
 10
4.445449999999993
 20
2.736325000000007
 30
0.0
 40
1.113625
 41
0.841
 71
     7
 72
     5
  1
{\fArial Narrow|b0|i0|c0|p34;2}
  7
ROMANT
 73
     1
 44
1.0
1001
ACAD
1000
MTEXTBEGIN
1070
    73
1070
     1
1070
    44
1040
1.0
1070
    74
1070
     0
1000
MTEXTEND
  0
CIRCLE
  5
3E4
330
33F
100
AcDbEntity
  8
Align
100
AcDbCircle
 10
4.0
 20
2.402237500000012
 30
0.0
 40
0.044545
  0
CIRCLE
  5
3E5
330
33F
100
AcDbEntity
  8
Align
100
AcDbCircle
 10
4.0
 20
2.736325000000007
 30
0.0
 40
0.044545
  0
CIRCLE
  5
3E6
330
33F
100
AcDbEntity
  8
Align
100
AcDbCircle
 10
4.445449999999993
 20
2.736325000000007
 30
0.0
 40
0.044545
  0
CIRCLE
  5
3E7
330
33F
100
AcDbEntity
  8
Align
100
AcDbCircle
 10
4.0
 20
3.849950000000006
 30
0.0
 40
0.044545
  0
CIRCLE
  5
3E8
330
33F
100
AcDbEntity
  8
Align
100
AcDbCircle
 10
4.0
 20
2.402237500000012
 30
0.0
 40
0.039685
  0
CIRCLE
  5
3E9
330
33F
100
AcDbEntity
  8
Align
100
AcDbCircle
 10
4.0
 20
3.849950000000006
 30
0.0
 40
0.05
  0
CIRCLE
  5
3EA
330
33F
100
AcDbEntity
  8
Align
100
AcDbCircle
 10
4.0
 20
4.224950000000006
 30
0.0
 40
0.05
  0
CIRCLE
  5
3EB
330
33F
100
AcDbEntity
  8
Align
100
AcDbCircle
 10
4.5
 20
4.224950000000006
 30
0.0
 40
0.05
  0
MTEXT
  5
3EC
330
33F
100
AcDbEntity
  8
Bars
100
AcDbMText
 10
-5.327299999999979
 20
6.365849999999994
 30
0.0
 40
2.22725
 41
2.004999999999999
 71
     8
 72
     5
  1
{\fArial Narrow|b0|i0|c0|p34;0}
  7
ROMANT
 73
     1
 44
1.0
1001
ACAD
1000
MTEXTBEGIN
1070
    73
1070
     1
1070
    44
1040
1.0
1070
    74
1070
     0
1000
MTEXTEND
  0
CIRCLE
  5
3ED
330
33F
100
AcDbEntity
  8
Align
100
AcDbCircle
 10
-2.654599999999987
 20
6.143125000000011
 30
0.0
 40
0.08909
  0
CIRCLE
  5
3EE
330
33F
100
AcDbEntity
  8
Align
100
AcDbCircle
 10
-3.545499999999975
 20
6.143125000000011
 30
0.0
 40
0.08909
  0
MTEXT
  5
3EF
330
33F
100
AcDbEntity
  8
Bars
100
AcDbMText
 10
2.5
 20
6.36584999999998
 30
0.0
 40
2.22725
 41
2.004524999999995
 71
     8
 72
     5
  1
{\fArial Narrow|b0|i0|c0|p34;1}
  7
ROMANT
 73
     1
 44
1.0
1001
ACAD
1000
MTEXTBEGIN
1070
    73
1070
     1
1070
    44
1040
1.0
1070
    74
1070
     0
1000
MTEXTEND
  0
ENDBLK
  5
341
330
33F
100
AcDbEntity
  8
0
100
AcDbBlockEnd
  0
ENDSEC
  0
SECTION
  2
ENTITIES
  0
LINE
  5
46
330
1E
100
AcDbEntity
  8
0
100
AcDbLine
 10
0.0
 20
0.0
 30
0.0
 11
265.0
 21
0.0
 31
0.0
  0
LINE
  5
47
330
1E
100
AcDbEntity
  8
0
100
AcDbLine
 10
265.0
 20
0.0
 30
0.0
 11
265.0
 21
200.0
 31
0.0
  0
LINE
  5
48
330
1E
100
AcDbEntity
  8
0
100
AcDbLine
 10
265.0
 20
200.0
 30
0.0
 11
0.0
 21
200.0
 31
0.0
  0
LINE
  5
49
330
1E
100
AcDbEntity
  8
0
100
AcDbLine
 10
0.0
 20
200.0
 30
0.0
 11
0.0
 21
0.0
 31
0.0
  0
CIRCLE
  5
3F5
330
1E
100
AcDbEntity
  8
Align
100
AcDbCircle
 10
127.5264000000002
 20
187.1242500000001
 30
0.0
 40
1.42544
  0
MTEXT
  5
3F6
330
1E
100
AcDbEntity
  8
Bars
100
AcDbMText
 10
27.7456000000002
 20
151.4882500000001
 30
0.0
 40
35.636
 41
32.08
 71
     9
 72
     5
  1
{\fArial Narrow|b0|i0|c0|p34;2}
  7
ROMANT
 73
     1
 44
1.0
1001
ACAD
1000
MTEXTBEGIN
1070
    73
1070
     1
1070
    44
1040
1.0
1070
    74
1070
     0
1000
MTEXTEND
  0
CIRCLE
  5
3F7
330
1E
100
AcDbEntity
  8
Align
100
AcDbCircle
 10
42.0
 20
187.1242500000001
 30
0.0
 40
1.42544
  0
CIRCLE
  5
3F8
330
1E
100
AcDbEntity
  8
Align
100
AcDbCircle
 10
127.5264000000002
 20
187.1242500000001
 30
0.0
 40
1.42544
  0
CIRCLE
  5
3F9
330
1E
100
AcDbEntity
  8
Align
100
AcDbCircle
 10
186.0
 20
187.1242500000001
 30
0.0
 40
0.8
  0
CIRCLE
  5
3FA
330
1E
100
AcDbEntity
  8
Align
100
AcDbCircle
 10
234.0
 20
187.1242500000001
 30
0.0
 40
0.8
  0
MTEXT
  5
3FB
330
1E
100
AcDbEntity
  8
Bars
100
AcDbMText
 10
242.0
 20
167.1242500000001
 30
0.0
 40
20.0
 41
15.104
 71
     7
 72
     5
  1
{\fArial Narrow|b0|i0|c0|p34;1}
  7
ROMANT
 73
     1
 44
1.0
1001
ACAD
1000
MTEXTBEGIN
1070
    73
1070
     1
1070
    44
1040
1.0
1070
    74
1070
     0
1000
MTEXTEND
  0
MTEXT
  5
3FC
330
1E
100
AcDbEntity
  8
Bars
100
AcDbMText
 10
31.92063999999982
 20
37.55692999999999
 30
0.0
 40
25.1984
 41
22.672
 71
     9
 72
     5
  1
{\fArial Narrow|b0|i0|c0|p34;5}
  7
ROMANT
 73
     1
 44
1.0
1001
ACAD
1000
MTEXTBEGIN
1070
    73
1070
     1
1070
    44
1040
1.0
1070
    74
1070
     0
1000
MTEXTEND
  0
MTEXT
  5
3FD
330
1E
100
AcDbEntity
  8
Bars
100
AcDbMText
 10
30.68624
 20
71.24064999999998
 30
0.0
 40
28.2844
 41
25.456
 71
     9
 72
     5
  1
{\fArial Narrow|b0|i0|c0|p34;4}
  7
ROMANT
 73
     1
 44
1.0
1001
ACAD
1000
MTEXTBEGIN
1070
    73
1070
     1
1070
    44
1040
1.0
1070
    74
1070
     0
1000
MTEXTEND
  0
MTEXT
  5
3FE
330
1E
100
AcDbEntity
  8
Bars
100
AcDbMText
 10
29.30079999999998
 20
109.04945
 30
0.0
 40
31.748
 41
28.576
 71
     9
 72
     5
  1
{\fArial Narrow|b0|i0|c0|p34;3}
  7
ROMANT
 73
     1
 44
1.0
1001
ACAD
1000
MTEXTBEGIN
1070
    73
1070
     1
1070
    44
1040
1.0
1070
    74
1070
     0
1000
MTEXTEND
  0
LWPOLYLINE
  5
3FF
330
1E
100
AcDbEntity
  8
Bars
100
AcDbPolyline
 90
        2
 70
     0
 10
99.95632000000023
 20
62.75532999999976
 40
5.03968
 41
5.03968
 10
99.95632000000023
 20
37.55692999999977
 40
10.07936
 41
10.07936
  0
LWPOLYLINE
  5
400
330
1E
100
AcDbEntity
  8
Bars
100
AcDbPolyline
 90
        2
 70
     0
 10
79.79759999999988
 20
62.75532999999976
 40
5.03968
 41
5.03968
 10
79.79759999999988
 20
37.55692999999977
 40
10.07936
 41
10.07936
  0
LWPOLYLINE
  5
401
330
1E
100
AcDbEntity
  8
Bars
100
AcDbPolyline
 90
        2
 70
     0
 10
67.19840000000022
 20
60.23549000000006
 40
5.03968
 41
5.03968
 10
42.0
 20
60.23549000000006
 40
10.07936
 41
10.07936
  0
LWPOLYLINE
  5
402
330
1E
100
AcDbEntity
  8
Bars
100
AcDbPolyline
 90
        2
 70
     0
 10
89.87696000000005
 20
62.75532999999976
 40
5.03968
 41
5.03968
 10
89.87696000000005
 20
37.55692999999977
 40
10.07936
 41
10.07936
  0
CIRCLE
  5
403
330
1E
100
AcDbEntity
  8
Align
100
AcDbCircle
 10
42.0
 20
62.75532999999999
 30
0.0
 40
1.007936
  0
CIRCLE
  5
404
330
1E
100
AcDbEntity
  8
Align
100
AcDbCircle
 10
102.4761600000001
 20
62.75532999999999
 30
0.0
 40
1.007936
  0
CIRCLE
  5
405
330
1E
100
AcDbEntity
  8
Align
100
AcDbCircle
 10
109.88256
 20
62.75532999999999
 30
0.0
 40
1.131376
  0
CIRCLE
  5
406
330
1E
100
AcDbEntity
  8
Align
100
AcDbCircle
 10
42.0
 20
62.75532999999999
 30
0.0
 40
1.131376
  0
CIRCLE
  5
407
330
1E
100
AcDbEntity
  8
Align
100
AcDbCircle
 10
102.4761600000001
 20
29.99740999999998
 30
0.0
 40
1.007936
  0
CIRCLE
  5
408
330
1E
100
AcDbEntity
  8
Align
100
AcDbCircle
 10
102.4761600000001
 20
37.55692999999999
 30
0.0
 40
1.007936
  0
LWPOLYLINE
  5
409
330
1E
100
AcDbEntity
  8
Bars
100
AcDbPolyline
 90
        2
 70
     0
 10
64.44920000000002
 20
27.75248999999988
 40
4.48984
 41
4.48984
 10
42.0
 20
27.75248999999988
 40
8.97968
 41
8.97968
  0
LWPOLYLINE
  5
40A
330
1E
100
AcDbEntity
  8
Bars
100
AcDbPolyline
 90
        2
 70
     0
 10
64.44920000000002
 20
18.77280999999996
 40
4.48984
 41
4.48984
 10
42.0
 20
18.77280999999996
 40
8.97968
 41
8.97968
  0
LWPOLYLINE
  5
40B
330
1E
100
AcDbEntity
  8
Bars
100
AcDbPolyline
 90
        2
 70
     0
 10
64.44920000000002
 20
9.793130000000047
 40
4.48984
 41
4.48984
 10
42.0
 20
9.793130000000047
 40
8.97968
 41
8.97968
  0
LWPOLYLINE
  5
40C
330
1E
100
AcDbEntity
  8
Bars
100
AcDbPolyline
 90
        2
 70
     0
 10
67.19840000000022
 20
50.15612999999987
 40
5.03968
 41
5.03968
 10
42.0
 20
50.15612999999987
 40
10.07936
 41
10.07936
  0
LWPOLYLINE
  5
40D
330
1E
100
AcDbEntity
  8
Bars
100
AcDbPolyline
 90
        2
 70
     0
 10
67.19840000000022
 20
40.07676999999993
 40
5.03968
 41
5.03968
 10
42.0
 20
40.07676999999993
 40
10.07936
 41
10.07936
  0
MTEXT
  5
40E
330
1E
100
AcDbEntity
  8
Bars
100
AcDbMText
 10
33.02032000000008
 20
7.548209999999954
 30
0.0
 40
22.4492
 41
20.208
 71
     9
 72
     5
  1
{\fArial Narrow|b0|i0|c0|p34;6}
  7
ROMANT
 73
     1
 44
1.0
1001
ACAD
1000
MTEXTBEGIN
1070
    73
1070
     1
1070
    44
1040
1.0
1070
    74
1070
     0
1000
MTEXTEND
  0
CIRCLE
  5
40F
330
1E
100
AcDbEntity
  8
Align
100
AcDbCircle
 10
42.0
 20
0.8134499999999036
 30
0.0
 40
0.8979680000000001
  0
CIRCLE
  5
410
330
1E
100
AcDbEntity
  8
Align
100
AcDbCircle
 10
42.0
 20
7.548209999999954
 30
0.0
 40
0.8979680000000001
  0
CIRCLE
  5
411
330
1E
100
AcDbEntity
  8
Align
100
AcDbCircle
 10
33.02032000000008
 20
7.548209999999954
 30
0.0
 40
0.8979680000000001
  0
CIRCLE
  5
412
330
1E
100
AcDbEntity
  8
Align
100
AcDbCircle
 10
42.0
 20
29.99740999999998
 30
0.0
 40
0.8979680000000001
  0
CIRCLE
  5
413
330
1E
100
AcDbEntity
  8
Align
100
AcDbCircle
 10
42.0
 20
29.99740999999998
 30
0.0
 40
1.007936
  0
CIRCLE
  5
414
330
1E
100
AcDbEntity
  8
Align
100
AcDbCircle
 10
42.0
 20
37.55692999999999
 30
0.0
 40
1.007936
  0
CIRCLE
  5
415
330
1E
100
AcDbEntity
  8
Align
100
AcDbCircle
 10
31.92063999999982
 20
37.55692999999999
 30
0.0
 40
1.007936
  0
CIRCLE
  5
416
330
1E
100
AcDbEntity
  8
Align
100
AcDbCircle
 10
95.87807999999995
 20
0.8134499999999036
 30
0.0
 40
0.8979680000000001
  0
LWPOLYLINE
  5
417
330
1E
100
AcDbEntity
  8
Bars
100
AcDbPolyline
 90
        2
 70
     0
 10
93.63315999999986
 20
29.99740999999975
 40
4.48984
 41
4.48984
 10
93.63315999999986
 20
7.548209999999954
 40
8.97968
 41
8.97968
  0
CIRCLE
  5
418
330
1E
100
AcDbEntity
  8
Align
100
AcDbCircle
 10
95.87807999999995
 20
7.548209999999954
 30
0.0
 40
0.8979680000000001
  0
LWPOLYLINE
  5
419
330
1E
100
AcDbEntity
  8
Bars
100
AcDbPolyline
 90
        2
 70
     0
 10
75.67380000000003
 20
29.99740999999975
 40
4.48984
 41
4.48984
 10
75.67380000000003
 20
7.548209999999954
 40
8.97968
 41
8.97968
  0
LWPOLYLINE
  5
41A
330
1E
100
AcDbEntity
  8
Bars
100
AcDbPolyline
 90
        2
 70
     0
 10
84.65347999999995
 20
29.99740999999975
 40
4.48984
 41
4.48984
 10
84.65347999999995
 20
7.548209999999954
 40
8.97968
 41
8.97968
  0
CIRCLE
  5
41B
330
1E
100
AcDbEntity
  8
Align
100
AcDbCircle
 10
95.87807999999995
 20
29.99740999999998
 30
0.0
 40
0.8979680000000001
  0
CIRCLE
  5
41C
330
1E
100
AcDbEntity
  8
Align
100
AcDbCircle
 10
138.0
 20
-4.451790000000045
 30
0.0
 40
1.6
  0
LWPOLYLINE
  5
41D
330
1E
100
AcDbEntity
  8
Bars
100
AcDbPolyline
 90
        2
 70
     0
 10
142.0
 20
47.54820999999973
 40
8.0
 41
8.0
 10
142.0
 20
7.548209999999727
 40
16.0
 41
16.0
  0
CIRCLE
  5
41E
330
1E
100
AcDbEntity
  8
Align
100
AcDbCircle
 10
104.8577599999998
 20
7.548209999999954
 30
0.0
 40
0.8979680000000001
  0
CIRCLE
  5
41F
330
1E
100
AcDbEntity
  8
Align
100
AcDbCircle
 10
112.5555199999999
 20
37.55692999999999
 30
0.0
 40
1.007936
  0
CIRCLE
  5
420
330
1E
100
AcDbEntity
  8
Align
100
AcDbCircle
 10
138.0
 20
47.54820999999995
 30
0.0
 40
1.6
  0
LWPOLYLINE
  5
421
330
1E
100
AcDbEntity
  8
Bars
100
AcDbPolyline
 90
        2
 70
     0
 10
174.0
 20
47.54820999999973
 40
8.0
 41
8.0
 10
174.0
 20
7.548209999999727
 40
16.0
 41
16.0
  0
LWPOLYLINE
  5
422
330
1E
100
AcDbEntity
  8
Bars
100
AcDbPolyline
 90
        2
 70
     0
 10
158.0
 20
47.54820999999973
 40
8.0
 41
8.0
 10
158.0
 20
7.548209999999727
 40
16.0
 41
16.0
  0
LWPOLYLINE
  5
423
330
1E
100
AcDbEntity
  8
Bars
100
AcDbPolyline
 90
        2
 70
     0
 10
102.3211999999998
 20
140.7974499999998
 40
6.349599999999999
 41
6.349599999999999
 10
102.3211999999998
 20
109.0494499999998
 40
12.6992
 41
12.6992
  0
LWPOLYLINE
  5
424
330
1E
100
AcDbEntity
  8
Bars
100
AcDbPolyline
 90
        2
 70
     0
 10
89.62199999999985
 20
140.7974499999998
 40
6.349599999999999
 41
6.349599999999999
 10
89.62199999999985
 20
109.0494499999998
 40
12.6992
 41
12.6992
  0
LWPOLYLINE
  5
425
330
1E
100
AcDbEntity
  8
Bars
100
AcDbPolyline
 90
        2
 70
     0
 10
73.74800000000004
 20
124.92345
 40
6.349599999999999
 41
6.349599999999999
 10
42.0
 20
124.92345
 40
12.6992
 41
12.6992
  0
LWPOLYLINE
  5
426
330
1E
100
AcDbEntity
  8
Bars
100
AcDbPolyline
 90
        2
 70
     0
 10
73.74800000000004
 20
112.22425
 40
6.349599999999999
 41
6.349599999999999
 10
42.0
 20
112.22425
 40
12.6992
 41
12.6992
  0
LWPOLYLINE
  5
427
330
1E
100
AcDbEntity
  8
Bars
100
AcDbPolyline
 90
        2
 70
     0
 10
70.2844
 20
96.69660999999999
 40
5.65688
 41
5.65688
 10
42.0
 20
96.69660999999999
 40
11.31376
 41
11.31376
  0
LWPOLYLINE
  5
428
330
1E
100
AcDbEntity
  8
Bars
100
AcDbPolyline
 90
        2
 70
     0
 10
70.2844
 20
85.38285
 40
5.65688
 41
5.65688
 10
42.0
 20
85.38285
 40
11.31376
 41
11.31376
  0
LWPOLYLINE
  5
429
330
1E
100
AcDbEntity
  8
Bars
100
AcDbPolyline
 90
        2
 70
     0
 10
70.2844
 20
74.06908999999998
 40
5.65688
 41
5.65688
 10
42.0
 20
74.06908999999998
 40
11.31376
 41
11.31376
  0
CIRCLE
  5
42A
330
1E
100
AcDbEntity
  8
Align
100
AcDbCircle
 10
42.0
 20
99.52505
 30
0.0
 40
1.269919999999999
  0
CIRCLE
  5
42B
330
1E
100
AcDbEntity
  8
Align
100
AcDbCircle
 10
42.0
 20
109.04945
 30
0.0
 40
1.269919999999999
  0
CIRCLE
  5
42C
330
1E
100
AcDbEntity
  8
Align
100
AcDbCircle
 10
29.30079999999998
 20
109.04945
 30
0.0
 40
1.269919999999999
  0
CIRCLE
  5
42D
330
1E
100
AcDbEntity
  8
Align
100
AcDbCircle
 10
42.0
 20
71.24064999999998
 30
0.0
 40
1.131376
  0
CIRCLE
  5
42E
330
1E
100
AcDbEntity
  8
Align
100
AcDbCircle
 10
30.68624
 20
71.24064999999998
 30
0.0
 40
1.131376
  0
CIRCLE
  5
42F
330
1E
100
AcDbEntity
  8
Align
100
AcDbCircle
 10
42.0
 20
99.52505
 30
0.0
 40
1.131376
  0
LWPOLYLINE
  5
430
330
1E
100
AcDbEntity
  8
Bars
100
AcDbPolyline
 90
        2
 70
     0
 10
84.42659999999978
 20
99.52504999999977
 40
5.65688
 41
5.65688
 10
84.42659999999978
 20
71.24064999999976
 40
11.31376
 41
11.31376
  0
LWPOLYLINE
  5
431
330
1E
100
AcDbEntity
  8
Bars
100
AcDbPolyline
 90
        2
 70
     0
 10
95.74035999999978
 20
99.52504999999977
 40
5.65688
 41
5.65688
 10
95.74035999999978
 20
71.24064999999976
 40
11.31376
 41
11.31376
  0
LWPOLYLINE
  5
432
330
1E
100
AcDbEntity
  8
Bars
100
AcDbPolyline
 90
        2
 70
     0
 10
77.63599999999996
 20
183.5606500000001
 40
7.1272
 41
7.1272
 10
42.0
 20
183.5606500000001
 40
14.2544
 41
14.2544
  0
LWPOLYLINE
  5
433
330
1E
100
AcDbEntity
  8
Bars
100
AcDbPolyline
 90
        2
 70
     0
 10
77.63599999999996
 20
169.3062500000001
 40
7.1272
 41
7.1272
 10
42.0
 20
169.3062500000001
 40
14.2544
 41
14.2544
  0
LWPOLYLINE
  5
434
330
1E
100
AcDbEntity
  8
Bars
100
AcDbPolyline
 90
        2
 70
     0
 10
77.63599999999996
 20
155.05185
 40
7.1272
 41
7.1272
 10
42.0
 20
155.05185
 40
14.2544
 41
14.2544
  0
LWPOLYLINE
  5
435
330
1E
100
AcDbEntity
  8
Bars
100
AcDbPolyline
 90
        2
 70
     0
 10
73.74800000000004
 20
137.62265
 40
6.349599999999999
 41
6.349599999999999
 10
42.0
 20
137.62265
 40
12.6992
 41
12.6992
  0
CIRCLE
  5
436
330
1E
100
AcDbEntity
  8
Align
100
AcDbCircle
 10
42.0
 20
140.79745
 30
0.0
 40
1.42544
  0
CIRCLE
  5
437
330
1E
100
AcDbEntity
  8
Align
100
AcDbCircle
 10
42.0
 20
151.4882500000001
 30
0.0
 40
1.42544
  0
CIRCLE
  5
438
330
1E
100
AcDbEntity
  8
Align
100
AcDbCircle
 10
27.7456000000002
 20
151.4882500000001
 30
0.0
 40
1.42544
  0
CIRCLE
  5
439
330
1E
100
AcDbEntity
  8
Align
100
AcDbCircle
 10
42.0
 20
140.79745
 30
0.0
 40
1.269919999999999
  0
LWPOLYLINE
  5
43A
330
1E
100
AcDbEntity
  8
Bars
100
AcDbPolyline
 90
        2
 70
     0
 10
95.45400000000018
 20
187.1242499999999
 40
7.1272
 41
7.1272
 10
95.45400000000018
 20
151.4882499999999
 40
14.2544
 41
14.2544
  0
LWPOLYLINE
  5
43B
330
1E
100
AcDbEntity
  8
Bars
100
AcDbPolyline
 90
        2
 70
     0
 10
115.0203999999999
 20
140.7974499999998
 40
6.349599999999999
 41
6.349599999999999
 10
115.0203999999999
 20
109.0494499999998
 40
12.6992
 41
12.6992
  0
CIRCLE
  5
43C
330
1E
100
AcDbEntity
  8
Align
100
AcDbCircle
 10
130.8944000000001
 20
109.04945
 30
0.0
 40
1.269919999999999
  0
CIRCLE
  5
43D
330
1E
100
AcDbEntity
  8
Align
100
AcDbCircle
 10
118.1952000000001
 20
99.52505
 30
0.0
 40
1.269919999999999
  0
CIRCLE
  5
43E
330
1E
100
AcDbEntity
  8
Align
100
AcDbCircle
 10
118.1952000000001
 20
109.04945
 30
0.0
 40
1.269919999999999
  0
CIRCLE
  5
43F
330
1E
100
AcDbEntity
  8
Align
100
AcDbCircle
 10
121.19632
 20
71.24064999999998
 30
0.0
 40
1.131376
  0
LWPOLYLINE
  5
440
330
1E
100
AcDbEntity
  8
Bars
100
AcDbPolyline
 90
        2
 70
     0
 10
107.0541199999998
 20
99.52504999999977
 40
5.65688
 41
5.65688
 10
107.0541199999998
 20
71.24064999999976
 40
11.31376
 41
11.31376
  0
CIRCLE
  5
441
330
1E
100
AcDbEntity
  8
Align
100
AcDbCircle
 10
109.88256
 20
71.24064999999998
 30
0.0
 40
1.131376
  0
CIRCLE
  5
442
330
1E
100
AcDbEntity
  8
Align
100
AcDbCircle
 10
109.88256
 20
99.52505
 30
0.0
 40
1.131376
  0
CIRCLE
  5
443
330
1E
100
AcDbEntity
  8
Align
100
AcDbCircle
 10
170.0
 20
99.52505
 30
0.0
 40
6.200677999164781
  0
CIRCLE
  5
444
330
1E
100
AcDbEntity
  8
Align
100
AcDbCircle
 10
141.7808
 20
151.4882500000001
 30
0.0
 40
1.42544
  0
LWPOLYLINE
  5
445
330
1E
100
AcDbEntity
  8
Bars
100
AcDbPolyline
 90
        4
 70
     1
 43
0.0
 10
177.4167999999999
 20
187.1242500000001
 10
141.7808
 20
187.1242500000001
 10
141.7808
 20
151.4882500000001
 10
177.4167999999999
 20
151.4882500000001
  0
LWPOLYLINE
  5
446
330
1E
100
AcDbEntity
  8
Bars
100
AcDbPolyline
 90
        2
 70
     0
 43
35.63600000000042
 10
159.5987999999997
 20
187.1242500000001
 10
159.5987999999997
 20
151.4882500000001
  0
CIRCLE
  5
447
330
1E
100
AcDbEntity
  8
Align
100
AcDbCircle
 10
127.5264000000002
 20
140.79745
 30
0.0
 40
1.42544
  0
LWPOLYLINE
  5
448
330
1E
100
AcDbEntity
  8
Bars
100
AcDbPolyline
 90
        2
 70
     0
 10
123.9627999999998
 20
187.1242499999999
 40
7.1272
 41
7.1272
 10
123.9627999999998
 20
151.4882499999999
 40
14.2544
 41
14.2544
  0
CIRCLE
  5
449
330
1E
100
AcDbEntity
  8
Align
100
AcDbCircle
 10
127.5264000000002
 20
151.4882500000001
 30
0.0
 40
1.42544
  0
LWPOLYLINE
  5
44A
330
1E
100
AcDbEntity
  8
Bars
100
AcDbPolyline
 90
        2
 70
     0
 10
109.7084
 20
187.1242499999999
 40
7.1272
 41
7.1272
 10
109.7084
 20
151.4882499999999
 40
14.2544
 41
14.2544
  0
CIRCLE
  5
44B
330
1E
100
AcDbEntity
  8
Align
100
AcDbCircle
 10
118.1952000000001
 20
140.79745
 30
0.0
 40
1.269919999999999
  0
MTEXT
  5
44C
330
1E
100
AcDbEntity
  8
Bars
100
AcDbMText
 10
250.0
 20
7.548209999999954
 30
0.0
 40
40.0
 41
30.208
 71
     7
 72
     5
  1
{\fArial Narrow|b0|i0|c0|p34;1}
  7
ROMANT
 73
     1
 44
1.0
1001
ACAD
1000
MTEXTBEGIN
1070
    73
1070
     1
1070
    44
1040
1.0
1070
    74
1070
     0
1000
MTEXTEND
  0
CIRCLE
  5
44D
330
1E
100
AcDbEntity
  8
Align
100
AcDbCircle
 10
234.0
 20
-4.451790000000045
 30
0.0
 40
1.6
  0
LWPOLYLINE
  5
44E
330
1E
100
AcDbEntity
  8
Bars
100
AcDbPolyline
 90
        2
 70
     0
 10
194.0
 20
11.54820999999995
 40
8.0
 41
8.0
 10
234.0
 20
11.54820999999995
 40
16.0
 41
16.0
  0
LWPOLYLINE
  5
44F
330
1E
100
AcDbEntity
  8
Bars
100
AcDbPolyline
 90
        2
 70
     0
 10
194.0
 20
27.54820999999996
 40
8.0
 41
8.0
 10
234.0
 20
27.54820999999996
 40
16.0
 41
16.0
  0
LWPOLYLINE
  5
450
330
1E
100
AcDbEntity
  8
Bars
100
AcDbPolyline
 90
        2
 70
     0
 10
194.0
 20
43.54820999999995
 40
8.0
 41
8.0
 10
234.0
 20
43.54820999999995
 40
16.0
 41
16.0
  0
CIRCLE
  5
451
330
1E
100
AcDbEntity
  8
Align
100
AcDbCircle
 10
234.0
 20
7.548209999999954
 30
0.0
 40
1.6
  0
CIRCLE
  5
452
330
1E
100
AcDbEntity
  8
Align
100
AcDbCircle
 10
250.0
 20
7.548209999999954
 30
0.0
 40
1.6
  0
CIRCLE
  5
453
330
1E
100
AcDbEntity
  8
Align
100
AcDbCircle
 10
234.0
 20
47.54820999999995
 30
0.0
 40
1.6
  0
MTEXT
  5
454
330
1E
100
AcDbEntity
  8
Bars
100
AcDbMText
 10
240.3496
 20
122.0868500000001
 30
0.0
 40
15.874
 41
11.984
 71
     7
 72
     5
  1
{\fArial Narrow|b0|i0|c0|p34;3}
  7
ROMANT
 73
     1
 44
1.0
1001
ACAD
1000
MTEXTBEGIN
1070
    73
1070
     1
1070
    44
1040
1.0
1070
    74
1070
     0
1000
MTEXTEND
  0
LWPOLYLINE
  5
455
330
1E
100
AcDbEntity
  8
Bars
100
AcDbPolyline
 90
        2
 70
     0
 10
210.1889999999999
 20
137.9608500000002
 40
3.174799999999999
 41
3.174799999999999
 10
210.1889999999999
 20
122.0868500000001
 40
6.349599999999999
 41
6.349599999999999
  0
LWPOLYLINE
  5
456
330
1E
100
AcDbEntity
  8
Bars
100
AcDbPolyline
 90
        2
 70
     0
 10
203.8393999999998
 20
137.9608500000002
 40
3.174799999999999
 41
3.174799999999999
 10
203.8393999999998
 20
122.0868500000001
 40
6.349599999999999
 41
6.349599999999999
  0
LWPOLYLINE
  5
457
330
1E
100
AcDbEntity
  8
Bars
100
AcDbPolyline
 90
        2
 70
     0
 10
197.4897999999998
 20
137.9608500000002
 40
3.174799999999999
 41
3.174799999999999
 10
197.4897999999998
 20
122.0868500000001
 40
6.349599999999999
 41
6.349599999999999
  0
LWPOLYLINE
  5
458
330
1E
100
AcDbEntity
  8
Bars
100
AcDbPolyline
 90
        2
 70
     0
 10
218.1260000000002
 20
123.6742500000003
 40
3.174799999999999
 41
3.174799999999999
 10
234.0
 20
123.6742500000003
 40
6.349599999999999
 41
6.349599999999999
  0
LWPOLYLINE
  5
459
330
1E
100
AcDbEntity
  8
Bars
100
AcDbPolyline
 90
        2
 70
     0
 10
222.7754
 20
72.45869000000019
 40
2.24492
 41
2.24492
 10
234.0
 20
72.45869000000019
 40
4.48984
 41
4.48984
  0
LWPOLYLINE
  5
45A
330
1E
100
AcDbEntity
  8
Bars
100
AcDbPolyline
 90
        2
 70
     0
 10
222.7754
 20
76.94853000000015
 40
2.24492
 41
2.24492
 10
234.0
 20
76.94853000000015
 40
4.48984
 41
4.48984
  0
LWPOLYLINE
  5
45B
330
1E
100
AcDbEntity
  8
Bars
100
AcDbPolyline
 90
        2
 70
     0
 10
222.7754
 20
81.4383700000001
 40
2.24492
 41
2.24492
 10
234.0
 20
81.4383700000001
 40
4.48984
 41
4.48984
  0
LWPOLYLINE
  5
45C
330
1E
100
AcDbEntity
  8
Bars
100
AcDbPolyline
 90
        2
 70
     0
 10
221.4007999999999
 20
87.60051000000023
 40
2.51984
 41
2.51984
 10
234.0
 20
87.60051000000023
 40
5.03968
 41
5.03968
  0
LWPOLYLINE
  5
45D
330
1E
100
AcDbEntity
  8
Bars
100
AcDbPolyline
 90
        2
 70
     0
 10
221.4007999999999
 20
92.64019000000009
 40
2.51984
 41
2.51984
 10
234.0
 20
92.64019000000009
 40
5.03968
 41
5.03968
  0
LWPOLYLINE
  5
45E
330
1E
100
AcDbEntity
  8
Bars
100
AcDbPolyline
 90
        2
 70
     0
 10
221.4007999999999
 20
97.67987000000019
 40
2.51984
 41
2.51984
 10
234.0
 20
97.67987000000019
 40
5.03968
 41
5.03968
  0
LWPOLYLINE
  5
45F
330
1E
100
AcDbEntity
  8
Bars
100
AcDbPolyline
 90
        2
 70
     0
 10
219.8578000000002
 20
104.5966700000001
 40
2.82844
 41
2.82844
 10
234.0
 20
104.5966700000001
 40
5.65688
 41
5.65688
  0
LWPOLYLINE
  5
460
330
1E
100
AcDbEntity
  8
Bars
100
AcDbPolyline
 90
        2
 70
     0
 10
219.8578000000002
 20
110.2535500000001
 40
2.82844
 41
2.82844
 10
234.0
 20
110.2535500000001
 40
5.65688
 41
5.65688
  0
LWPOLYLINE
  5
461
330
1E
100
AcDbEntity
  8
Bars
100
AcDbPolyline
 90
        2
 70
     0
 10
219.8578000000002
 20
115.9104300000001
 40
2.82844
 41
2.82844
 10
234.0
 20
115.9104300000001
 40
5.65688
 41
5.65688
  0
LWPOLYLINE
  5
462
330
1E
100
AcDbEntity
  8
Bars
100
AcDbPolyline
 90
        2
 70
     0
 10
217.1631000000002
 20
82.56083000000016
 40
2.24492
 41
2.24492
 10
217.1631000000002
 20
71.33623000000014
 40
4.48984
 41
4.48984
  0
LWPOLYLINE
  5
463
330
1E
100
AcDbEntity
  8
Bars
100
AcDbPolyline
 90
        2
 70
     0
 10
212.67326
 20
82.56083000000016
 40
2.24492
 41
2.24492
 10
212.67326
 20
71.33623000000014
 40
4.48984
 41
4.48984
  0
CIRCLE
  5
464
330
1E
100
AcDbEntity
  8
Align
100
AcDbCircle
 10
207.0609599999998
 20
67.96885000000023
 30
0.0
 40
0.4489840000000001
  0
LWPOLYLINE
  5
465
330
1E
100
AcDbEntity
  8
Bars
100
AcDbPolyline
 90
        2
 70
     0
 10
208.1834199999998
 20
82.56083000000016
 40
2.24492
 41
2.24492
 10
208.1834199999998
 20
71.33623000000014
 40
4.48984
 41
4.48984
  0
CIRCLE
  5
466
330
1E
100
AcDbEntity
  8
Align
100
AcDbCircle
 10
207.0609599999998
 20
82.56083000000016
 30
0.0
 40
0.4489840000000001
  0
LWPOLYLINE
  5
467
330
1E
100
AcDbEntity
  8
Bars
100
AcDbPolyline
 90
        2
 70
     0
 10
215.1012000000001
 20
98.93979000000015
 40
2.51984
 41
2.51984
 10
215.1012000000001
 20
86.34059000000005
 40
5.03968
 41
5.03968
  0
LWPOLYLINE
  5
468
330
1E
100
AcDbEntity
  8
Bars
100
AcDbPolyline
 90
        2
 70
     0
 10
210.0615200000002
 20
98.93979000000015
 40
2.51984
 41
2.51984
 10
210.0615200000002
 20
86.34059000000005
 40
5.03968
 41
5.03968
  0
CIRCLE
  5
469
330
1E
100
AcDbEntity
  8
Align
100
AcDbCircle
 10
203.7619199999999
 20
82.56083000000016
 30
0.0
 40
0.5039680000000001
  0
LWPOLYLINE
  5
46A
330
1E
100
AcDbEntity
  8
Bars
100
AcDbPolyline
 90
        2
 70
     0
 10
205.0218399999999
 20
98.93979000000015
 40
2.51984
 41
2.51984
 10
205.0218399999999
 20
86.34059000000005
 40
5.03968
 41
5.03968
  0
CIRCLE
  5
46B
330
1E
100
AcDbEntity
  8
Align
100
AcDbCircle
 10
203.7619199999999
 20
98.93979000000015
 30
0.0
 40
0.5039680000000001
  0
LWPOLYLINE
  5
46C
330
1E
100
AcDbEntity
  8
Bars
100
AcDbPolyline
 90
        2
 70
     0
 10
212.7867000000001
 20
117.32465
 40
2.82844
 41
2.82844
 10
212.7867000000001
 20
103.18245
 40
5.65688
 41
5.65688
  0
LWPOLYLINE
  5
46D
330
1E
100
AcDbEntity
  8
Bars
100
AcDbPolyline
 90
        2
 70
     0
 10
207.1298200000001
 20
117.32465
 40
2.82844
 41
2.82844
 10
207.1298200000001
 20
103.18245
 40
5.65688
 41
5.65688
  0
CIRCLE
  5
46E
330
1E
100
AcDbEntity
  8
Align
100
AcDbCircle
 10
200.05872
 20
98.93979000000015
 30
0.0
 40
0.5656880000000001
  0
LWPOLYLINE
  5
46F
330
1E
100
AcDbEntity
  8
Bars
100
AcDbPolyline
 90
        2
 70
     0
 10
201.4729400000001
 20
117.32465
 40
2.82844
 41
2.82844
 10
201.4729400000001
 20
103.18245
 40
5.65688
 41
5.65688
  0
CIRCLE
  5
470
330
1E
100
AcDbEntity
  8
Align
100
AcDbCircle
 10
200.05872
 20
117.32465
 30
0.0
 40
0.5656880000000001
  0
CIRCLE
  5
471
330
1E
100
AcDbEntity
  8
Align
100
AcDbCircle
 10
195.9023999999999
 20
117.3246500000002
 30
0.0
 40
0.63496
  0
MTEXT
  5
472
330
1E
100
AcDbEntity
  8
Bars
100
AcDbMText
 10
238.4898400000002
 20
71.33623000000014
 30
0.0
 40
11.2246
 41
8.48
 71
     7
 72
     5
  1
{\fArial Narrow|b0|i0|c0|p34;6}
  7
ROMANT
 73
     1
 44
1.0
1001
ACAD
1000
MTEXTBEGIN
1070
    73
1070
     1
1070
    44
1040
1.0
1070
    74
1070
     0
1000
MTEXTEND
  0
MTEXT
  5
473
330
1E
100
AcDbEntity
  8
Bars
100
AcDbMText
 10
239.0396799999999
 20
86.34059000000005
 30
0.0
 40
12.5992
 41
9.519999999999999
 71
     7
 72
     5
  1
{\fArial Narrow|b0|i0|c0|p34;5}
  7
ROMANT
 73
     1
 44
1.0
1001
ACAD
1000
MTEXTBEGIN
1070
    73
1070
     1
1070
    44
1040
1.0
1070
    74
1070
     0
1000
MTEXTEND
  0
MTEXT
  5
474
330
1E
100
AcDbEntity
  8
Bars
100
AcDbMText
 10
239.65688
 20
103.18245
 30
0.0
 40
14.1422
 41
10.688
 71
     7
 72
     5
  1
{\fArial Narrow|b0|i0|c0|p34;4}
  7
ROMANT
 73
     1
 44
1.0
1001
ACAD
1000
MTEXTBEGIN
1070
    73
1070
     1
1070
    44
1040
1.0
1070
    74
1070
     0
1000
MTEXTEND
  0
CIRCLE
  5
475
330
1E
100
AcDbEntity
  8
Align
100
AcDbCircle
 10
234.0
 20
67.96885000000023
 30
0.0
 40
0.4489840000000001
  0
CIRCLE
  5
476
330
1E
100
AcDbEntity
  8
Align
100
AcDbCircle
 10
234.0
 20
71.33623000000014
 30
0.0
 40
0.4489840000000001
  0
CIRCLE
  5
477
330
1E
100
AcDbEntity
  8
Align
100
AcDbCircle
 10
238.4898400000002
 20
71.33623000000014
 30
0.0
 40
0.4489840000000001
  0
CIRCLE
  5
478
330
1E
100
AcDbEntity
  8
Align
100
AcDbCircle
 10
234.0
 20
82.56083000000016
 30
0.0
 40
0.4489840000000001
  0
CIRCLE
  5
479
330
1E
100
AcDbEntity
  8
Align
100
AcDbCircle
 10
234.0
 20
82.56083000000016
 30
0.0
 40
0.5039680000000001
  0
CIRCLE
  5
47A
330
1E
100
AcDbEntity
  8
Align
100
AcDbCircle
 10
234.0
 20
86.34059000000005
 30
0.0
 40
0.5039680000000001
  0
CIRCLE
  5
47B
330
1E
100
AcDbEntity
  8
Align
100
AcDbCircle
 10
239.0396799999999
 20
86.34059000000005
 30
0.0
 40
0.5039680000000001
  0
CIRCLE
  5
47C
330
1E
100
AcDbEntity
  8
Align
100
AcDbCircle
 10
234.0
 20
98.93979000000015
 30
0.0
 40
0.5039680000000001
  0
CIRCLE
  5
47D
330
1E
100
AcDbEntity
  8
Align
100
AcDbCircle
 10
234.0
 20
98.93979000000015
 30
0.0
 40
0.5656880000000001
  0
CIRCLE
  5
47E
330
1E
100
AcDbEntity
  8
Align
100
AcDbCircle
 10
234.0
 20
103.18245
 30
0.0
 40
0.5656880000000001
  0
CIRCLE
  5
47F
330
1E
100
AcDbEntity
  8
Align
100
AcDbCircle
 10
239.65688
 20
103.18245
 30
0.0
 40
0.5656880000000001
  0
CIRCLE
  5
480
330
1E
100
AcDbEntity
  8
Align
100
AcDbCircle
 10
234.0
 20
117.32465
 30
0.0
 40
0.5656880000000001
  0
CIRCLE
  5
481
330
1E
100
AcDbEntity
  8
Align
100
AcDbCircle
 10
234.0
 20
117.3246500000002
 30
0.0
 40
0.63496
  0
CIRCLE
  5
482
330
1E
100
AcDbEntity
  8
Align
100
AcDbCircle
 10
234.0
 20
122.0868500000001
 30
0.0
 40
0.63496
  0
CIRCLE
  5
483
330
1E
100
AcDbEntity
  8
Align
100
AcDbCircle
 10
240.3496
 20
122.0868500000001
 30
0.0
 40
0.63496
  0
LWPOLYLINE
  5
484
330
1E
100
AcDbEntity
  8
Bars
100
AcDbPolyline
 90
        2
 70
     0
 10
216.1819999999998
 20
145.0880500000001
 40
3.5636
 41
3.5636
 10
234.0
 20
145.0880500000001
 40
7.1272
 41
7.1272
  0
LWPOLYLINE
  5
485
330
1E
100
AcDbEntity
  8
Bars
100
AcDbPolyline
 90
        2
 70
     0
 10
216.1819999999998
 20
152.21525
 40
3.5636
 41
3.5636
 10
234.0
 20
152.21525
 40
7.1272
 41
7.1272
  0
LWPOLYLINE
  5
486
330
1E
100
AcDbEntity
  8
Bars
100
AcDbPolyline
 90
        2
 70
     0
 10
216.1819999999998
 20
159.3424500000001
 40
3.5636
 41
3.5636
 10
234.0
 20
159.3424500000001
 40
7.1272
 41
7.1272
  0
LWPOLYLINE
  5
487
330
1E
100
AcDbEntity
  8
Bars
100
AcDbPolyline
 90
        2
 70
     0
 10
218.1260000000002
 20
130.0238500000003
 40
3.174799999999999
 41
3.174799999999999
 10
234.0
 20
130.0238500000003
 40
6.349599999999999
 41
6.349599999999999
  0
LWPOLYLINE
  5
488
330
1E
100
AcDbEntity
  8
Bars
100
AcDbPolyline
 90
        2
 70
     0
 10
218.1260000000002
 20
136.3734500000003
 40
3.174799999999999
 41
3.174799999999999
 10
234.0
 20
136.3734500000003
 40
6.349599999999999
 41
6.349599999999999
  0
LWPOLYLINE
  5
489
330
1E
100
AcDbEntity
  8
Bars
100
AcDbPolyline
 90
        2
 70
     0
 10
214.0
 20
169.1242500000001
 40
4.0
 41
4.0
 10
234.0
 20
169.1242500000001
 40
8.0
 41
8.0
  0
LWPOLYLINE
  5
48A
330
1E
100
AcDbEntity
  8
Bars
100
AcDbPolyline
 90
        2
 70
     0
 10
214.0
 20
177.1242500000001
 40
4.0
 41
4.0
 10
234.0
 20
177.1242500000001
 40
8.0
 41
8.0
  0
LWPOLYLINE
  5
48B
330
1E
100
AcDbEntity
  8
Bars
100
AcDbPolyline
 90
        2
 70
     0
 10
214.0
 20
185.1242500000001
 40
4.0
 41
4.0
 10
234.0
 20
185.1242500000001
 40
8.0
 41
8.0
  0
LWPOLYLINE
  5
48C
330
1E
100
AcDbEntity
  8
Bars
100
AcDbPolyline
 90
        2
 70
     0
 10
207.2730000000001
 20
161.1242500000001
 40
3.5636
 41
3.5636
 10
207.2730000000001
 20
143.3062499999999
 40
7.1272
 41
7.1272
  0
LWPOLYLINE
  5
48D
330
1E
100
AcDbEntity
  8
Bars
100
AcDbPolyline
 90
        2
 70
     0
 10
200.1457999999998
 20
161.1242500000001
 40
3.5636
 41
3.5636
 10
200.1457999999998
 20
143.3062499999999
 40
7.1272
 41
7.1272
  0
CIRCLE
  5
48E
330
1E
100
AcDbEntity
  8
Align
100
AcDbCircle
 10
191.2368000000001
 20
137.9608500000002
 30
0.0
 40
0.7127200000000001
  0
LWPOLYLINE
  5
48F
330
1E
100
AcDbEntity
  8
Bars
100
AcDbPolyline
 90
        2
 70
     0
 10
193.0185999999999
 20
161.1242500000001
 40
3.5636
 41
3.5636
 10
193.0185999999999
 20
143.3062499999999
 40
7.1272
 41
7.1272
  0
CIRCLE
  5
490
330
1E
100
AcDbEntity
  8
Align
100
AcDbCircle
 10
191.2368000000001
 20
161.1242500000001
 30
0.0
 40
0.7127200000000001
  0
CIRCLE
  5
491
330
1E
100
AcDbEntity
  8
Align
100
AcDbCircle
 10
195.9023999999999
 20
137.9608500000002
 30
0.0
 40
0.63496
  0
LWPOLYLINE
  5
492
330
1E
100
AcDbEntity
  8
Bars
100
AcDbPolyline
 90
        2
 70
     0
 10
204.0
 20
187.1242500000001
 40
4.0
 41
4.0
 10
204.0
 20
167.1242500000001
 40
8.0
 41
8.0
  0
LWPOLYLINE
  5
493
330
1E
100
AcDbEntity
  8
Bars
100
AcDbPolyline
 90
        2
 70
     0
 10
196.0
 20
187.1242500000001
 40
4.0
 41
4.0
 10
196.0
 20
167.1242500000001
 40
8.0
 41
8.0
  0
CIRCLE
  5
494
330
1E
100
AcDbEntity
  8
Align
100
AcDbCircle
 10
186.0
 20
161.1242500000001
 30
0.0
 40
0.8
  0
LWPOLYLINE
  5
495
330
1E
100
AcDbEntity
  8
Bars
100
AcDbPolyline
 90
        2
 70
     0
 10
188.0
 20
187.1242500000001
 40
4.0
 41
4.0
 10
188.0
 20
167.1242500000001
 40
8.0
 41
8.0
  0
MTEXT
  5
496
330
1E
100
AcDbEntity
  8
Bars
100
AcDbMText
 10
241.1271999999999
 20
143.3062500000001
 30
0.0
 40
17.818
 41
13.456
 71
     7
 72
     5
  1
{\fArial Narrow|b0|i0|c0|p34;2}
  7
ROMANT
 73
     1
 44
1.0
1001
ACAD
1000
MTEXTBEGIN
1070
    73
1070
     1
1070
    44
1040
1.0
1070
    74
1070
     0
1000
MTEXTEND
  0
CIRCLE
  5
497
330
1E
100
AcDbEntity
  8
Align
100
AcDbCircle
 10
234.0
 20
137.9608500000002
 30
0.0
 40
0.7127200000000001
  0
CIRCLE
  5
498
330
1E
100
AcDbEntity
  8
Align
100
AcDbCircle
 10
234.0
 20
143.3062500000001
 30
0.0
 40
0.7127200000000001
  0
CIRCLE
  5
499
330
1E
100
AcDbEntity
  8
Align
100
AcDbCircle
 10
241.1271999999999
 20
143.3062500000001
 30
0.0
 40
0.7127200000000001
  0
CIRCLE
  5
49A
330
1E
100
AcDbEntity
  8
Align
100
AcDbCircle
 10
234.0
 20
161.1242500000001
 30
0.0
 40
0.7127200000000001
  0
CIRCLE
  5
49B
330
1E
100
AcDbEntity
  8
Align
100
AcDbCircle
 10
234.0
 20
137.9608500000002
 30
0.0
 40
0.63496
  0
CIRCLE
  5
49C
330
1E
100
AcDbEntity
  8
Align
100
AcDbCircle
 10
234.0
 20
161.1242500000001
 30
0.0
 40
0.8
  0
CIRCLE
  5
49D
330
1E
100
AcDbEntity
  8
Align
100
AcDbCircle
 10
234.0
 20
167.1242500000001
 30
0.0
 40
0.8
  0
CIRCLE
  5
49E
330
1E
100
AcDbEntity
  8
Align
100
AcDbCircle
 10
242.0
 20
167.1242500000001
 30
0.0
 40
0.8
  0
CIRCLE
  5
4A0
330
1E
100
AcDbEntity
  8
Align
100
AcDbCircle
 10
127.5264000000002
 20
197.8150500000002
 30
0.0
 40
1.42544
  0
CIRCLE
  5
4A1
330
1E
100
AcDbEntity
  8
Align
100
AcDbCircle
 10
113.2720000000004
 20
197.8150500000002
 30
0.0
 40
1.42544
  0
CIRCLE
  5
4A3
330
1E
100
AcDbEntity
  8
Align
100
AcDbCircle
 10
159.3816
 20
121.42485
 30
0.0
 40
0.35636
  0
MTEXT
  5
4A4
330
1E
100
AcDbEntity
  8
Bars
100
AcDbMText
 10
134.4364
 20
112.51585
 30
0.0
 40
8.909
 41
8.019999999999999
 71
     9
 72
     5
  1
{\fArial Narrow|b0|i0|c0|p34;2}
  7
ROMANT
 73
     1
 44
1.0
1001
ACAD
1000
MTEXTBEGIN
1070
    73
1070
     1
1070
    44
1040
1.0
1070
    74
1070
     0
1000
MTEXTEND
  0
CIRCLE
  5
4A5
330
1E
100
AcDbEntity
  8
Align
100
AcDbCircle
 10
138.0
 20
121.42485
 30
0.0
 40
0.35636
  0
CIRCLE
  5
4A6
330
1E
100
AcDbEntity
  8
Align
100
AcDbCircle
 10
159.3816
 20
121.42485
 30
0.0
 40
0.35636
  0
CIRCLE
  5
4A7
330
1E
100
AcDbEntity
  8
Align
100
AcDbCircle
 10
174.0
 20
121.42485
 30
0.0
 40
0.2
  0
CIRCLE
  5
4A8
330
1E
100
AcDbEntity
  8
Align
100
AcDbCircle
 10
186.0
 20
121.42485
 30
0.0
 40
0.2
  0
MTEXT
  5
4A9
330
1E
100
AcDbEntity
  8
Bars
100
AcDbMText
 10
188.0
 20
116.42485
 30
0.0
 40
5.0
 41
3.776
 71
     7
 72
     5
  1
{\fArial Narrow|b0|i0|c0|p34;1}
  7
ROMANT
 73
     1
 44
1.0
1001
ACAD
1000
MTEXTBEGIN
1070
    73
1070
     1
1070
    44
1040
1.0
1070
    74
1070
     0
1000
MTEXTEND
  0
MTEXT
  5
4AA
330
1E
100
AcDbEntity
  8
Bars
100
AcDbMText
 10
135.4801599999999
 20
84.03302
 30
0.0
 40
6.2996
 41
5.667999999999999
 71
     9
 72
     5
  1
{\fArial Narrow|b0|i0|c0|p34;5}
  7
ROMANT
 73
     1
 44
1.0
1001
ACAD
1000
MTEXTBEGIN
1070
    73
1070
     1
1070
    44
1040
1.0
1070
    74
1070
     0
1000
MTEXTEND
  0
MTEXT
  5
4AB
330
1E
100
AcDbEntity
  8
Bars
100
AcDbMText
 10
135.17156
 20
92.45395
 30
0.0
 40
7.0711
 41
6.363999999999999
 71
     9
 72
     5
  1
{\fArial Narrow|b0|i0|c0|p34;4}
  7
ROMANT
 73
     1
 44
1.0
1001
ACAD
1000
MTEXTBEGIN
1070
    73
1070
     1
1070
    44
1040
1.0
1070
    74
1070
     0
1000
MTEXTEND
  0
MTEXT
  5
4AC
330
1E
100
AcDbEntity
  8
Bars
100
AcDbMText
 10
134.8252
 20
101.90615
 30
0.0
 40
7.936999999999999
 41
7.144
 71
     9
 72
     5
  1
{\fArial Narrow|b0|i0|c0|p34;3}
  7
ROMANT
 73
     1
 44
1.0
1001
ACAD
1000
MTEXTBEGIN
1070
    73
1070
     1
1070
    44
1040
1.0
1070
    74
1070
     0
1000
MTEXTEND
  0
LWPOLYLINE
  5
4AD
330
1E
100
AcDbEntity
  8
Bars
100
AcDbPolyline
 90
        2
 70
     0
 10
152.48908
 20
90.33261999999993
 40
1.25992
 41
1.25992
 10
152.48908
 20
84.03301999999994
 40
2.51984
 41
2.51984
  0
LWPOLYLINE
  5
4AE
330
1E
100
AcDbEntity
  8
Bars
100
AcDbPolyline
 90
        2
 70
     0
 10
147.4493999999999
 20
90.33261999999993
 40
1.25992
 41
1.25992
 10
147.4493999999999
 20
84.03301999999994
 40
2.51984
 41
2.51984
  0
LWPOLYLINE
  5
4AF
330
1E
100
AcDbEntity
  8
Bars
100
AcDbPolyline
 90
        2
 70
     0
 10
144.2996
 20
89.70266
 40
1.25992
 41
1.25992
 10
138.0
 20
89.70266
 40
2.51984
 41
2.51984
  0
LWPOLYLINE
  5
4B0
330
1E
100
AcDbEntity
  8
Bars
100
AcDbPolyline
 90
        2
 70
     0
 10
149.96924
 20
90.33261999999993
 40
1.25992
 41
1.25992
 10
149.96924
 20
84.03301999999994
 40
2.51984
 41
2.51984
  0
CIRCLE
  5
4B1
330
1E
100
AcDbEntity
  8
Align
100
AcDbCircle
 10
138.0
 20
90.33261999999998
 30
0.0
 40
0.251984
  0
CIRCLE
  5
4B2
330
1E
100
AcDbEntity
  8
Align
100
AcDbCircle
 10
153.11904
 20
90.33261999999998
 30
0.0
 40
0.251984
  0
CIRCLE
  5
4B3
330
1E
100
AcDbEntity
  8
Align
100
AcDbCircle
 10
154.97064
 20
90.33261999999998
 30
0.0
 40
0.282844
  0
CIRCLE
  5
4B4
330
1E
100
AcDbEntity
  8
Align
100
AcDbCircle
 10
138.0
 20
90.33261999999998
 30
0.0
 40
0.282844
  0
CIRCLE
  5
4B5
330
1E
100
AcDbEntity
  8
Align
100
AcDbCircle
 10
153.11904
 20
82.14313999999999
 30
0.0
 40
0.251984
  0
CIRCLE
  5
4B6
330
1E
100
AcDbEntity
  8
Align
100
AcDbCircle
 10
153.11904
 20
84.03302
 30
0.0
 40
0.251984
  0
LWPOLYLINE
  5
4B7
330
1E
100
AcDbEntity
  8
Bars
100
AcDbPolyline
 90
        2
 70
     0
 10
143.6123
 20
81.58190999999996
 40
1.12246
 41
1.12246
 10
138.0
 20
81.58190999999996
 40
2.24492
 41
2.24492
  0
LWPOLYLINE
  5
4B8
330
1E
100
AcDbEntity
  8
Bars
100
AcDbPolyline
 90
        2
 70
     0
 10
143.6123
 20
79.33698999999998
 40
1.12246
 41
1.12246
 10
138.0
 20
79.33698999999998
 40
2.24492
 41
2.24492
  0
LWPOLYLINE
  5
4B9
330
1E
100
AcDbEntity
  8
Bars
100
AcDbPolyline
 90
        2
 70
     0
 10
143.6123
 20
77.09207000000001
 40
1.12246
 41
1.12246
 10
138.0
 20
77.09207000000001
 40
2.24492
 41
2.24492
  0
LWPOLYLINE
  5
4BA
330
1E
100
AcDbEntity
  8
Bars
100
AcDbPolyline
 90
        2
 70
     0
 10
144.2996
 20
87.18281999999996
 40
1.25992
 41
1.25992
 10
138.0
 20
87.18281999999996
 40
2.51984
 41
2.51984
  0
LWPOLYLINE
  5
4BB
330
1E
100
AcDbEntity
  8
Bars
100
AcDbPolyline
 90
        2
 70
     0
 10
144.2996
 20
84.66297999999998
 40
1.25992
 41
1.25992
 10
138.0
 20
84.66297999999998
 40
2.51984
 41
2.51984
  0
MTEXT
  5
4BC
330
1E
100
AcDbEntity
  8
Bars
100
AcDbMText
 10
135.75508
 20
76.53083999999998
 30
0.0
 40
5.6123
 41
5.051999999999999
 71
     9
 72
     5
  1
{\fArial Narrow|b0|i0|c0|p34;6}
  7
ROMANT
 73
     1
 44
1.0
1001
ACAD
1000
MTEXTBEGIN
1070
    73
1070
     1
1070
    44
1040
1.0
1070
    74
1070
     0
1000
MTEXTEND
  0
CIRCLE
  5
4BD
330
1E
100
AcDbEntity
  8
Align
100
AcDbCircle
 10
138.0
 20
74.84714999999997
 30
0.0
 40
0.224492
  0
CIRCLE
  5
4BE
330
1E
100
AcDbEntity
  8
Align
100
AcDbCircle
 10
138.0
 20
76.53083999999998
 30
0.0
 40
0.224492
  0
CIRCLE
  5
4BF
330
1E
100
AcDbEntity
  8
Align
100
AcDbCircle
 10
135.75508
 20
76.53083999999998
 30
0.0
 40
0.224492
  0
CIRCLE
  5
4C0
330
1E
100
AcDbEntity
  8
Align
100
AcDbCircle
 10
138.0
 20
82.14313999999999
 30
0.0
 40
0.224492
  0
CIRCLE
  5
4C1
330
1E
100
AcDbEntity
  8
Align
100
AcDbCircle
 10
138.0
 20
82.14313999999999
 30
0.0
 40
0.251984
  0
CIRCLE
  5
4C2
330
1E
100
AcDbEntity
  8
Align
100
AcDbCircle
 10
138.0
 20
84.03302
 30
0.0
 40
0.251984
  0
CIRCLE
  5
4C3
330
1E
100
AcDbEntity
  8
Align
100
AcDbCircle
 10
135.4801599999999
 20
84.03302
 30
0.0
 40
0.251984
  0
CIRCLE
  5
4C4
330
1E
100
AcDbEntity
  8
Align
100
AcDbCircle
 10
151.46952
 20
74.84714999999997
 30
0.0
 40
0.224492
  0
LWPOLYLINE
  5
4C5
330
1E
100
AcDbEntity
  8
Bars
100
AcDbPolyline
 90
        2
 70
     0
 10
150.9082899999999
 20
82.14313999999992
 40
1.12246
 41
1.12246
 10
150.9082899999999
 20
76.53083999999998
 40
2.24492
 41
2.24492
  0
CIRCLE
  5
4C6
330
1E
100
AcDbEntity
  8
Align
100
AcDbCircle
 10
151.46952
 20
76.53083999999998
 30
0.0
 40
0.224492
  0
LWPOLYLINE
  5
4C7
330
1E
100
AcDbEntity
  8
Bars
100
AcDbPolyline
 90
        2
 70
     0
 10
146.41845
 20
82.14313999999992
 40
1.12246
 41
1.12246
 10
146.41845
 20
76.53083999999998
 40
2.24492
 41
2.24492
  0
LWPOLYLINE
  5
4C8
330
1E
100
AcDbEntity
  8
Bars
100
AcDbPolyline
 90
        2
 70
     0
 10
148.66337
 20
82.14313999999992
 40
1.12246
 41
1.12246
 10
148.66337
 20
76.53083999999998
 40
2.24492
 41
2.24492
  0
CIRCLE
  5
4C9
330
1E
100
AcDbEntity
  8
Align
100
AcDbCircle
 10
151.46952
 20
82.14313999999999
 30
0.0
 40
0.224492
  0
CIRCLE
  5
4CA
330
1E
100
AcDbEntity
  8
Align
100
AcDbCircle
 10
162.0
 20
73.53083999999999
 30
0.0
 40
0.4
  0
LWPOLYLINE
  5
4CB
330
1E
100
AcDbEntity
  8
Bars
100
AcDbPolyline
 90
        2
 70
     0
 10
163.0
 20
86.53083999999992
 40
2.0
 41
2.0
 10
163.0
 20
76.53083999999992
 40
4.0
 41
4.0
  0
CIRCLE
  5
4CC
330
1E
100
AcDbEntity
  8
Align
100
AcDbCircle
 10
153.7144399999999
 20
76.53083999999998
 30
0.0
 40
0.224492
  0
CIRCLE
  5
4CD
330
1E
100
AcDbEntity
  8
Align
100
AcDbCircle
 10
155.6388799999999
 20
84.03302
 30
0.0
 40
0.251984
  0
CIRCLE
  5
4CE
330
1E
100
AcDbEntity
  8
Align
100
AcDbCircle
 10
162.0
 20
86.53083999999997
 30
0.0
 40
0.4
  0
LWPOLYLINE
  5
4CF
330
1E
100
AcDbEntity
  8
Bars
100
AcDbPolyline
 90
        2
 70
     0
 10
171.0
 20
86.53083999999992
 40
2.0
 41
2.0
 10
171.0
 20
76.53083999999992
 40
4.0
 41
4.0
  0
LWPOLYLINE
  5
4D0
330
1E
100
AcDbEntity
  8
Bars
100
AcDbPolyline
 90
        2
 70
     0
 10
167.0
 20
86.53083999999992
 40
2.0
 41
2.0
 10
167.0
 20
76.53083999999992
 40
4.0
 41
4.0
  0
LWPOLYLINE
  5
4D1
330
1E
100
AcDbEntity
  8
Bars
100
AcDbPolyline
 90
        2
 70
     0
 10
153.0802999999999
 20
109.8431499999999
 40
1.587399999999999
 41
1.587399999999999
 10
153.0802999999999
 20
101.9061499999999
 40
3.174799999999999
 41
3.174799999999999
  0
LWPOLYLINE
  5
4D2
330
1E
100
AcDbEntity
  8
Bars
100
AcDbPolyline
 90
        2
 70
     0
 10
149.9054999999999
 20
109.8431499999999
 40
1.587399999999999
 41
1.587399999999999
 10
149.9054999999999
 20
101.9061499999999
 40
3.174799999999999
 41
3.174799999999999
  0
LWPOLYLINE
  5
4D3
330
1E
100
AcDbEntity
  8
Bars
100
AcDbPolyline
 90
        2
 70
     0
 10
145.937
 20
105.87465
 40
1.587399999999999
 41
1.587399999999999
 10
138.0
 20
105.87465
 40
3.174799999999999
 41
3.174799999999999
  0
LWPOLYLINE
  5
4D4
330
1E
100
AcDbEntity
  8
Bars
100
AcDbPolyline
 90
        2
 70
     0
 10
145.937
 20
102.69985
 40
1.587399999999999
 41
1.587399999999999
 10
138.0
 20
102.69985
 40
3.174799999999999
 41
3.174799999999999
  0
LWPOLYLINE
  5
4D5
330
1E
100
AcDbEntity
  8
Bars
100
AcDbPolyline
 90
        2
 70
     0
 10
145.0711
 20
98.81793999999999
 40
1.41422
 41
1.41422
 10
138.0
 20
98.81793999999999
 40
2.82844
 41
2.82844
  0
LWPOLYLINE
  5
4D6
330
1E
100
AcDbEntity
  8
Bars
100
AcDbPolyline
 90
        2
 70
     0
 10
145.0711
 20
95.9895
 40
1.41422
 41
1.41422
 10
138.0
 20
95.9895
 40
2.82844
 41
2.82844
  0
LWPOLYLINE
  5
4D7
330
1E
100
AcDbEntity
  8
Bars
100
AcDbPolyline
 90
        2
 70
     0
 10
145.0711
 20
93.16105999999999
 40
1.41422
 41
1.41422
 10
138.0
 20
93.16105999999999
 40
2.82844
 41
2.82844
  0
CIRCLE
  5
4D8
330
1E
100
AcDbEntity
  8
Align
100
AcDbCircle
 10
138.0
 20
99.52505
 30
0.0
 40
0.31748
  0
CIRCLE
  5
4D9
330
1E
100
AcDbEntity
  8
Align
100
AcDbCircle
 10
138.0
 20
101.90615
 30
0.0
 40
0.31748
  0
CIRCLE
  5
4DA
330
1E
100
AcDbEntity
  8
Align
100
AcDbCircle
 10
134.8252
 20
101.90615
 30
0.0
 40
0.31748
  0
CIRCLE
  5
4DB
330
1E
100
AcDbEntity
  8
Align
100
AcDbCircle
 10
138.0
 20
92.45395
 30
0.0
 40
0.282844
  0
CIRCLE
  5
4DC
330
1E
100
AcDbEntity
  8
Align
100
AcDbCircle
 10
135.17156
 20
92.45395
 30
0.0
 40
0.282844
  0
CIRCLE
  5
4DD
330
1E
100
AcDbEntity
  8
Align
100
AcDbCircle
 10
138.0
 20
99.52505
 30
0.0
 40
0.282844
  0
LWPOLYLINE
  5
4DE
330
1E
100
AcDbEntity
  8
Bars
100
AcDbPolyline
 90
        2
 70
     0
 10
148.6066499999999
 20
99.52504999999995
 40
1.41422
 41
1.41422
 10
148.6066499999999
 20
92.45394999999993
 40
2.82844
 41
2.82844
  0
LWPOLYLINE
  5
4DF
330
1E
100
AcDbEntity
  8
Bars
100
AcDbPolyline
 90
        2
 70
     0
 10
151.4350899999999
 20
99.52504999999995
 40
1.41422
 41
1.41422
 10
151.4350899999999
 20
92.45394999999993
 40
2.82844
 41
2.82844
  0
LWPOLYLINE
  5
4E0
330
1E
100
AcDbEntity
  8
Bars
100
AcDbPolyline
 90
        2
 70
     0
 10
146.909
 20
120.53395
 40
1.7818
 41
1.7818
 10
138.0
 20
120.53395
 40
3.5636
 41
3.5636
  0
LWPOLYLINE
  5
4E1
330
1E
100
AcDbEntity
  8
Bars
100
AcDbPolyline
 90
        2
 70
     0
 10
146.909
 20
116.97035
 40
1.7818
 41
1.7818
 10
138.0
 20
116.97035
 40
3.5636
 41
3.5636
  0
LWPOLYLINE
  5
4E2
330
1E
100
AcDbEntity
  8
Bars
100
AcDbPolyline
 90
        2
 70
     0
 10
146.909
 20
113.40675
 40
1.7818
 41
1.7818
 10
138.0
 20
113.40675
 40
3.5636
 41
3.5636
  0
LWPOLYLINE
  5
4E3
330
1E
100
AcDbEntity
  8
Bars
100
AcDbPolyline
 90
        2
 70
     0
 10
145.937
 20
109.04945
 40
1.587399999999999
 41
1.587399999999999
 10
138.0
 20
109.04945
 40
3.174799999999999
 41
3.174799999999999
  0
CIRCLE
  5
4E4
330
1E
100
AcDbEntity
  8
Align
100
AcDbCircle
 10
138.0
 20
109.84315
 30
0.0
 40
0.35636
  0
CIRCLE
  5
4E5
330
1E
100
AcDbEntity
  8
Align
100
AcDbCircle
 10
138.0
 20
112.51585
 30
0.0
 40
0.35636
  0
CIRCLE
  5
4E6
330
1E
100
AcDbEntity
  8
Align
100
AcDbCircle
 10
134.4364
 20
112.51585
 30
0.0
 40
0.35636
  0
CIRCLE
  5
4E7
330
1E
100
AcDbEntity
  8
Align
100
AcDbCircle
 10
138.0
 20
109.84315
 30
0.0
 40
0.31748
  0
LWPOLYLINE
  5
4E8
330
1E
100
AcDbEntity
  8
Bars
100
AcDbPolyline
 90
        2
 70
     0
 10
151.3635
 20
121.4248499999999
 40
1.7818
 41
1.7818
 10
151.3635
 20
112.5158499999999
 40
3.5636
 41
3.5636
  0
LWPOLYLINE
  5
4E9
330
1E
100
AcDbEntity
  8
Bars
100
AcDbPolyline
 90
        2
 70
     0
 10
156.2551
 20
109.8431499999999
 40
1.587399999999999
 41
1.587399999999999
 10
156.2551
 20
101.9061499999999
 40
3.174799999999999
 41
3.174799999999999
  0
CIRCLE
  5
4EA
330
1E
100
AcDbEntity
  8
Align
100
AcDbCircle
 10
160.2236
 20
101.90615
 30
0.0
 40
0.31748
  0
CIRCLE
  5
4EB
330
1E
100
AcDbEntity
  8
Align
100
AcDbCircle
 10
157.0488
 20
99.52505
 30
0.0
 40
0.31748
  0
CIRCLE
  5
4EC
330
1E
100
AcDbEntity
  8
Align
100
AcDbCircle
 10
157.0488
 20
101.90615
 30
0.0
 40
0.31748
  0
CIRCLE
  5
4ED
330
1E
100
AcDbEntity
  8
Align
100
AcDbCircle
 10
157.79908
 20
92.45395
 30
0.0
 40
0.282844
  0
LWPOLYLINE
  5
4EE
330
1E
100
AcDbEntity
  8
Bars
100
AcDbPolyline
 90
        2
 70
     0
 10
154.2635299999999
 20
99.52504999999995
 40
1.41422
 41
1.41422
 10
154.2635299999999
 20
92.45394999999993
 40
2.82844
 41
2.82844
  0
CIRCLE
  5
4EF
330
1E
100
AcDbEntity
  8
Align
100
AcDbCircle
 10
154.97064
 20
92.45395
 30
0.0
 40
0.282844
  0
CIRCLE
  5
4F0
330
1E
100
AcDbEntity
  8
Align
100
AcDbCircle
 10
154.97064
 20
99.52505
 30
0.0
 40
0.282844
  0
CIRCLE
  5
4F1
330
1E
100
AcDbEntity
  8
Align
100
AcDbCircle
 10
170.0
 20
99.52505
 30
0.0
 40
1.550169499791195
  0
CIRCLE
  5
4F2
330
1E
100
AcDbEntity
  8
Align
100
AcDbCircle
 10
162.9452
 20
112.51585
 30
0.0
 40
0.35636
  0
LWPOLYLINE
  5
4F3
330
1E
100
AcDbEntity
  8
Bars
100
AcDbPolyline
 90
        4
 70
     1
 43
0.0
 10
171.8542
 20
121.42485
 10
162.9452
 20
121.42485
 10
162.9452
 20
112.51585
 10
171.8542
 20
112.51585
  0
LWPOLYLINE
  5
4F4
330
1E
100
AcDbEntity
  8
Bars
100
AcDbPolyline
 90
        2
 70
     0
 43
8.909000000000105
 10
167.3996999999999
 20
121.42485
 10
167.3996999999999
 20
112.51585
  0
CIRCLE
  5
4F5
330
1E
100
AcDbEntity
  8
Align
100
AcDbCircle
 10
159.3816
 20
109.84315
 30
0.0
 40
0.35636
  0
LWPOLYLINE
  5
4F6
330
1E
100
AcDbEntity
  8
Bars
100
AcDbPolyline
 90
        2
 70
     0
 10
158.4906999999999
 20
121.4248499999999
 40
1.7818
 41
1.7818
 10
158.4906999999999
 20
112.5158499999999
 40
3.5636
 41
3.5636
  0
CIRCLE
  5
4F7
330
1E
100
AcDbEntity
  8
Align
100
AcDbCircle
 10
159.3816
 20
112.51585
 30
0.0
 40
0.35636
  0
LWPOLYLINE
  5
4F8
330
1E
100
AcDbEntity
  8
Bars
100
AcDbPolyline
 90
        2
 70
     0
 10
154.9271
 20
121.4248499999999
 40
1.7818
 41
1.7818
 10
154.9271
 20
112.5158499999999
 40
3.5636
 41
3.5636
  0
CIRCLE
  5
4F9
330
1E
100
AcDbEntity
  8
Align
100
AcDbCircle
 10
157.0488
 20
109.84315
 30
0.0
 40
0.31748
  0
MTEXT
  5
4FA
330
1E
100
AcDbEntity
  8
Bars
100
AcDbMText
 10
190.0
 20
76.53083999999998
 30
0.0
 40
10.0
 41
7.552
 71
     7
 72
     5
  1
{\fArial Narrow|b0|i0|c0|p34;1}
  7
ROMANT
 73
     1
 44
1.0
1001
ACAD
1000
MTEXTBEGIN
1070
    73
1070
     1
1070
    44
1040
1.0
1070
    74
1070
     0
1000
MTEXTEND
  0
CIRCLE
  5
4FB
330
1E
100
AcDbEntity
  8
Align
100
AcDbCircle
 10
186.0
 20
73.53083999999999
 30
0.0
 40
0.4
  0
LWPOLYLINE
  5
4FC
330
1E
100
AcDbEntity
  8
Bars
100
AcDbPolyline
 90
        2
 70
     0
 10
176.0
 20
77.53083999999998
 40
2.0
 41
2.0
 10
186.0
 20
77.53083999999998
 40
4.0
 41
4.0
  0
LWPOLYLINE
  5
4FD
330
1E
100
AcDbEntity
  8
Bars
100
AcDbPolyline
 90
        2
 70
     0
 10
176.0
 20
81.53083999999997
 40
2.0
 41
2.0
 10
186.0
 20
81.53083999999997
 40
4.0
 41
4.0
  0
LWPOLYLINE
  5
4FE
330
1E
100
AcDbEntity
  8
Bars
100
AcDbPolyline
 90
        2
 70
     0
 10
176.0
 20
85.53083999999998
 40
2.0
 41
2.0
 10
186.0
 20
85.53083999999998
 40
4.0
 41
4.0
  0
CIRCLE
  5
4FF
330
1E
100
AcDbEntity
  8
Align
100
AcDbCircle
 10
186.0
 20
76.53083999999998
 30
0.0
 40
0.4
  0
CIRCLE
  5
500
330
1E
100
AcDbEntity
  8
Align
100
AcDbCircle
 10
190.0
 20
76.53083999999998
 30
0.0
 40
0.4
  0
CIRCLE
  5
501
330
1E
100
AcDbEntity
  8
Align
100
AcDbCircle
 10
186.0
 20
86.53083999999997
 30
0.0
 40
0.4
  0
MTEXT
  5
502
330
1E
100
AcDbEntity
  8
Bars
100
AcDbMText
 10
187.5874
 20
105.1655
 30
0.0
 40
3.968499999999999
 41
2.996
 71
     7
 72
     5
  1
{\fArial Narrow|b0|i0|c0|p34;3}
  7
ROMANT
 73
     1
 44
1.0
1001
ACAD
1000
MTEXTBEGIN
1070
    73
1070
     1
1070
    44
1040
1.0
1070
    74
1070
     0
1000
MTEXTEND
  0
LWPOLYLINE
  5
503
330
1E
100
AcDbEntity
  8
Bars
100
AcDbPolyline
 90
        2
 70
     0
 10
180.0472499999999
 20
109.134
 40
0.7937
 41
0.7937
 10
180.0472499999999
 20
105.1655
 40
1.587399999999999
 41
1.587399999999999
  0
LWPOLYLINE
  5
504
330
1E
100
AcDbEntity
  8
Bars
100
AcDbPolyline
 90
        2
 70
     0
 10
178.4598499999999
 20
109.134
 40
0.7937
 41
0.7937
 10
178.4598499999999
 20
105.1655
 40
1.587399999999999
 41
1.587399999999999
  0
LWPOLYLINE
  5
505
330
1E
100
AcDbEntity
  8
Bars
100
AcDbPolyline
 90
        2
 70
     0
 10
176.8724499999999
 20
109.134
 40
0.7937
 41
0.7937
 10
176.8724499999999
 20
105.1655
 40
1.587399999999999
 41
1.587399999999999
  0
LWPOLYLINE
  5
506
330
1E
100
AcDbEntity
  8
Bars
100
AcDbPolyline
 90
        2
 70
     0
 10
182.0315
 20
105.56235
 40
0.7937
 41
0.7937
 10
186.0
 20
105.56235
 40
1.587399999999999
 41
1.587399999999999
  0
LWPOLYLINE
  5
507
330
1E
100
AcDbEntity
  8
Bars
100
AcDbPolyline
 90
        2
 70
     0
 10
183.19385
 20
92.75846000000004
 40
0.5612300000000001
 41
0.5612300000000001
 10
186.0
 20
92.75846000000004
 40
1.12246
 41
1.12246
  0
LWPOLYLINE
  5
508
330
1E
100
AcDbEntity
  8
Bars
100
AcDbPolyline
 90
        2
 70
     0
 10
183.19385
 20
93.88092000000003
 40
0.5612300000000001
 41
0.5612300000000001
 10
186.0
 20
93.88092000000003
 40
1.12246
 41
1.12246
  0
LWPOLYLINE
  5
509
330
1E
100
AcDbEntity
  8
Bars
100
AcDbPolyline
 90
        2
 70
     0
 10
183.19385
 20
95.00338000000002
 40
0.5612300000000001
 41
0.5612300000000001
 10
186.0
 20
95.00338000000002
 40
1.12246
 41
1.12246
  0
LWPOLYLINE
  5
50A
330
1E
100
AcDbEntity
  8
Bars
100
AcDbPolyline
 90
        2
 70
     0
 10
182.8502
 20
96.54391500000006
 40
0.6299600000000001
 41
0.6299600000000001
 10
186.0
 20
96.54391500000006
 40
1.25992
 41
1.25992
  0
LWPOLYLINE
  5
50B
330
1E
100
AcDbEntity
  8
Bars
100
AcDbPolyline
 90
        2
 70
     0
 10
182.8502
 20
97.80383500000002
 40
0.6299600000000001
 41
0.6299600000000001
 10
186.0
 20
97.80383500000002
 40
1.25992
 41
1.25992
  0
LWPOLYLINE
  5
50C
330
1E
100
AcDbEntity
  8
Bars
100
AcDbPolyline
 90
        2
 70
     0
 10
182.8502
 20
99.06375500000004
 40
0.6299600000000001
 41
0.6299600000000001
 10
186.0
 20
99.06375500000004
 40
1.25992
 41
1.25992
  0
LWPOLYLINE
  5
50D
330
1E
100
AcDbEntity
  8
Bars
100
AcDbPolyline
 90
        2
 70
     0
 10
182.46445
 20
100.792955
 40
0.7071100000000001
 41
0.7071100000000001
 10
186.0
 20
100.792955
 40
1.41422
 41
1.41422
  0
LWPOLYLINE
  5
50E
330
1E
100
AcDbEntity
  8
Bars
100
AcDbPolyline
 90
        2
 70
     0
 10
182.46445
 20
102.207175
 40
0.7071100000000001
 41
0.7071100000000001
 10
186.0
 20
102.207175
 40
1.41422
 41
1.41422
  0
LWPOLYLINE
  5
50F
330
1E
100
AcDbEntity
  8
Bars
100
AcDbPolyline
 90
        2
 70
     0
 10
182.46445
 20
103.621395
 40
0.7071100000000001
 41
0.7071100000000001
 10
186.0
 20
103.621395
 40
1.41422
 41
1.41422
  0
LWPOLYLINE
  5
510
330
1E
100
AcDbEntity
  8
Bars
100
AcDbPolyline
 90
        2
 70
     0
 10
181.790775
 20
95.28399500000004
 40
0.5612300000000001
 41
0.5612300000000001
 10
181.790775
 20
92.47784500000003
 40
1.12246
 41
1.12246
  0
LWPOLYLINE
  5
511
330
1E
100
AcDbEntity
  8
Bars
100
AcDbPolyline
 90
        2
 70
     0
 10
180.668315
 20
95.28399500000004
 40
0.5612300000000001
 41
0.5612300000000001
 10
180.668315
 20
92.47784500000003
 40
1.12246
 41
1.12246
  0
CIRCLE
  5
512
330
1E
100
AcDbEntity
  8
Align
100
AcDbCircle
 10
179.2652399999999
 20
91.63600000000005
 30
0.0
 40
0.112246
  0
LWPOLYLINE
  5
513
330
1E
100
AcDbEntity
  8
Bars
100
AcDbPolyline
 90
        2
 70
     0
 10
179.5458549999999
 20
95.28399500000004
 40
0.5612300000000001
 41
0.5612300000000001
 10
179.5458549999999
 20
92.47784500000003
 40
1.12246
 41
1.12246
  0
CIRCLE
  5
514
330
1E
100
AcDbEntity
  8
Align
100
AcDbCircle
 10
179.2652399999999
 20
95.28399500000004
 30
0.0
 40
0.112246
  0
LWPOLYLINE
  5
515
330
1E
100
AcDbEntity
  8
Bars
100
AcDbPolyline
 90
        2
 70
     0
 10
181.2753
 20
99.37873500000003
 40
0.6299600000000001
 41
0.6299600000000001
 10
181.2753
 20
96.22893500000001
 40
1.25992
 41
1.25992
  0
LWPOLYLINE
  5
516
330
1E
100
AcDbEntity
  8
Bars
100
AcDbPolyline
 90
        2
 70
     0
 10
180.01538
 20
99.37873500000003
 40
0.6299600000000001
 41
0.6299600000000001
 10
180.01538
 20
96.22893500000001
 40
1.25992
 41
1.25992
  0
CIRCLE
  5
517
330
1E
100
AcDbEntity
  8
Align
100
AcDbCircle
 10
178.44048
 20
95.28399500000004
 30
0.0
 40
0.125992
  0
LWPOLYLINE
  5
518
330
1E
100
AcDbEntity
  8
Bars
100
AcDbPolyline
 90
        2
 70
     0
 10
178.7554599999999
 20
99.37873500000003
 40
0.6299600000000001
 41
0.6299600000000001
 10
178.7554599999999
 20
96.22893500000001
 40
1.25992
 41
1.25992
  0
CIRCLE
  5
519
330
1E
100
AcDbEntity
  8
Align
100
AcDbCircle
 10
178.44048
 20
99.37873500000003
 30
0.0
 40
0.125992
  0
LWPOLYLINE
  5
51A
330
1E
100
AcDbEntity
  8
Bars
100
AcDbPolyline
 90
        2
 70
     0
 10
180.696675
 20
103.97495
 40
0.7071100000000001
 41
0.7071100000000001
 10
180.696675
 20
100.4394
 40
1.41422
 41
1.41422
  0
LWPOLYLINE
  5
51B
330
1E
100
AcDbEntity
  8
Bars
100
AcDbPolyline
 90
        2
 70
     0
 10
179.282455
 20
103.97495
 40
0.7071100000000001
 41
0.7071100000000001
 10
179.282455
 20
100.4394
 40
1.41422
 41
1.41422
  0
CIRCLE
  5
51C
330
1E
100
AcDbEntity
  8
Align
100
AcDbCircle
 10
177.51468
 20
99.37873500000003
 30
0.0
 40
0.141422
  0
LWPOLYLINE
  5
51D
330
1E
100
AcDbEntity
  8
Bars
100
AcDbPolyline
 90
        2
 70
     0
 10
177.868235
 20
103.97495
 40
0.7071100000000001
 41
0.7071100000000001
 10
177.868235
 20
100.4394
 40
1.41422
 41
1.41422
  0
CIRCLE
  5
51E
330
1E
100
AcDbEntity
  8
Align
100
AcDbCircle
 10
177.51468
 20
103.97495
 30
0.0
 40
0.141422
  0
CIRCLE
  5
51F
330
1E
100
AcDbEntity
  8
Align
100
AcDbCircle
 10
176.4756
 20
103.97495
 30
0.0
 40
0.15874
  0
MTEXT
  5
520
330
1E
100
AcDbEntity
  8
Bars
100
AcDbMText
 10
187.12246
 20
92.47784500000003
 30
0.0
 40
2.80615
 41
2.12
 71
     7
 72
     5
  1
{\fArial Narrow|b0|i0|c0|p34;6}
  7
ROMANT
 73
     1
 44
1.0
1001
ACAD
1000
MTEXTBEGIN
1070
    73
1070
     1
1070
    44
1040
1.0
1070
    74
1070
     0
1000
MTEXTEND
  0
MTEXT
  5
521
330
1E
100
AcDbEntity
  8
Bars
100
AcDbMText
 10
187.2599199999999
 20
96.22893500000001
 30
0.0
 40
3.1498
 41
2.379999999999999
 71
     7
 72
     5
  1
{\fArial Narrow|b0|i0|c0|p34;5}
  7
ROMANT
 73
     1
 44
1.0
1001
ACAD
1000
MTEXTBEGIN
1070
    73
1070
     1
1070
    44
1040
1.0
1070
    74
1070
     0
1000
MTEXTEND
  0
MTEXT
  5
522
330
1E
100
AcDbEntity
  8
Bars
100
AcDbMText
 10
187.41422
 20
100.4394
 30
0.0
 40
3.53555
 41
2.671999999999999
 71
     7
 72
     5
  1
{\fArial Narrow|b0|i0|c0|p34;4}
  7
ROMANT
 73
     1
 44
1.0
1001
ACAD
1000
MTEXTBEGIN
1070
    73
1070
     1
1070
    44
1040
1.0
1070
    74
1070
     0
1000
MTEXTEND
  0
CIRCLE
  5
523
330
1E
100
AcDbEntity
  8
Align
100
AcDbCircle
 10
186.0
 20
91.63600000000005
 30
0.0
 40
0.112246
  0
CIRCLE
  5
524
330
1E
100
AcDbEntity
  8
Align
100
AcDbCircle
 10
186.0
 20
92.47784500000003
 30
0.0
 40
0.112246
  0
CIRCLE
  5
525
330
1E
100
AcDbEntity
  8
Align
100
AcDbCircle
 10
187.12246
 20
92.47784500000003
 30
0.0
 40
0.112246
  0
CIRCLE
  5
526
330
1E
100
AcDbEntity
  8
Align
100
AcDbCircle
 10
186.0
 20
95.28399500000004
 30
0.0
 40
0.112246
  0
CIRCLE
  5
527
330
1E
100
AcDbEntity
  8
Align
100
AcDbCircle
 10
186.0
 20
95.28399500000004
 30
0.0
 40
0.125992
  0
CIRCLE
  5
528
330
1E
100
AcDbEntity
  8
Align
100
AcDbCircle
 10
186.0
 20
96.22893500000001
 30
0.0
 40
0.125992
  0
CIRCLE
  5
529
330
1E
100
AcDbEntity
  8
Align
100
AcDbCircle
 10
187.2599199999999
 20
96.22893500000001
 30
0.0
 40
0.125992
  0
CIRCLE
  5
52A
330
1E
100
AcDbEntity
  8
Align
100
AcDbCircle
 10
186.0
 20
99.37873500000003
 30
0.0
 40
0.125992
  0
CIRCLE
  5
52B
330
1E
100
AcDbEntity
  8
Align
100
AcDbCircle
 10
186.0
 20
99.37873500000003
 30
0.0
 40
0.141422
  0
CIRCLE
  5
52C
330
1E
100
AcDbEntity
  8
Align
100
AcDbCircle
 10
186.0
 20
100.4394
 30
0.0
 40
0.141422
  0
CIRCLE
  5
52D
330
1E
100
AcDbEntity
  8
Align
100
AcDbCircle
 10
187.41422
 20
100.4394
 30
0.0
 40
0.141422
  0
CIRCLE
  5
52E
330
1E
100
AcDbEntity
  8
Align
100
AcDbCircle
 10
186.0
 20
103.97495
 30
0.0
 40
0.141422
  0
CIRCLE
  5
52F
330
1E
100
AcDbEntity
  8
Align
100
AcDbCircle
 10
186.0
 20
103.97495
 30
0.0
 40
0.15874
  0
CIRCLE
  5
530
330
1E
100
AcDbEntity
  8
Align
100
AcDbCircle
 10
186.0
 20
105.1655
 30
0.0
 40
0.15874
  0
CIRCLE
  5
531
330
1E
100
AcDbEntity
  8
Align
100
AcDbCircle
 10
187.5874
 20
105.1655
 30
0.0
 40
0.15874
  0
LWPOLYLINE
  5
532
330
1E
100
AcDbEntity
  8
Bars
100
AcDbPolyline
 90
        2
 70
     0
 10
181.5454999999999
 20
110.9158
 40
0.8909
 41
0.8909
 10
186.0
 20
110.9158
 40
1.7818
 41
1.7818
  0
LWPOLYLINE
  5
533
330
1E
100
AcDbEntity
  8
Bars
100
AcDbPolyline
 90
        2
 70
     0
 10
181.5454999999999
 20
112.6976
 40
0.8909
 41
0.8909
 10
186.0
 20
112.6976
 40
1.7818
 41
1.7818
  0
LWPOLYLINE
  5
534
330
1E
100
AcDbEntity
  8
Bars
100
AcDbPolyline
 90
        2
 70
     0
 10
181.5454999999999
 20
114.4794
 40
0.8909
 41
0.8909
 10
186.0
 20
114.4794
 40
1.7818
 41
1.7818
  0
LWPOLYLINE
  5
535
330
1E
100
AcDbEntity
  8
Bars
100
AcDbPolyline
 90
        2
 70
     0
 10
182.0315
 20
107.14975
 40
0.7937
 41
0.7937
 10
186.0
 20
107.14975
 40
1.587399999999999
 41
1.587399999999999
  0
LWPOLYLINE
  5
536
330
1E
100
AcDbEntity
  8
Bars
100
AcDbPolyline
 90
        2
 70
     0
 10
182.0315
 20
108.7371500000001
 40
0.7937
 41
0.7937
 10
186.0
 20
108.7371500000001
 40
1.587399999999999
 41
1.587399999999999
  0
LWPOLYLINE
  5
537
330
1E
100
AcDbEntity
  8
Bars
100
AcDbPolyline
 90
        2
 70
     0
 10
181.0
 20
116.92485
 40
1.0
 41
1.0
 10
186.0
 20
116.92485
 40
2.0
 41
2.0
  0
LWPOLYLINE
  5
538
330
1E
100
AcDbEntity
  8
Bars
100
AcDbPolyline
 90
        2
 70
     0
 10
181.0
 20
118.92485
 40
1.0
 41
1.0
 10
186.0
 20
118.92485
 40
2.0
 41
2.0
  0
LWPOLYLINE
  5
539
330
1E
100
AcDbEntity
  8
Bars
100
AcDbPolyline
 90
        2
 70
     0
 10
181.0
 20
120.92485
 40
1.0
 41
1.0
 10
186.0
 20
120.92485
 40
2.0
 41
2.0
  0
LWPOLYLINE
  5
53A
330
1E
100
AcDbEntity
  8
Bars
100
AcDbPolyline
 90
        2
 70
     0
 10
179.31825
 20
114.92485
 40
0.8909
 41
0.8909
 10
179.31825
 20
110.4703499999999
 40
1.7818
 41
1.7818
  0
LWPOLYLINE
  5
53B
330
1E
100
AcDbEntity
  8
Bars
100
AcDbPolyline
 90
        2
 70
     0
 10
177.5364499999999
 20
114.92485
 40
0.8909
 41
0.8909
 10
177.5364499999999
 20
110.4703499999999
 40
1.7818
 41
1.7818
  0
CIRCLE
  5
53C
330
1E
100
AcDbEntity
  8
Align
100
AcDbCircle
 10
175.3092
 20
109.134
 30
0.0
 40
0.17818
  0
LWPOLYLINE
  5
53D
330
1E
100
AcDbEntity
  8
Bars
100
AcDbPolyline
 90
        2
 70
     0
 10
175.7546499999999
 20
114.92485
 40
0.8909
 41
0.8909
 10
175.7546499999999
 20
110.4703499999999
 40
1.7818
 41
1.7818
  0
CIRCLE
  5
53E
330
1E
100
AcDbEntity
  8
Align
100
AcDbCircle
 10
175.3092
 20
114.92485
 30
0.0
 40
0.17818
  0
CIRCLE
  5
53F
330
1E
100
AcDbEntity
  8
Align
100
AcDbCircle
 10
176.4756
 20
109.134
 30
0.0
 40
0.15874
  0
LWPOLYLINE
  5
540
330
1E
100
AcDbEntity
  8
Bars
100
AcDbPolyline
 90
        2
 70
     0
 10
178.5
 20
121.42485
 40
1.0
 41
1.0
 10
178.5
 20
116.42485
 40
2.0
 41
2.0
  0
LWPOLYLINE
  5
541
330
1E
100
AcDbEntity
  8
Bars
100
AcDbPolyline
 90
        2
 70
     0
 10
176.5
 20
121.42485
 40
1.0
 41
1.0
 10
176.5
 20
116.42485
 40
2.0
 41
2.0
  0
CIRCLE
  5
542
330
1E
100
AcDbEntity
  8
Align
100
AcDbCircle
 10
174.0
 20
114.92485
 30
0.0
 40
0.2
  0
LWPOLYLINE
  5
543
330
1E
100
AcDbEntity
  8
Bars
100
AcDbPolyline
 90
        2
 70
     0
 10
174.5
 20
121.42485
 40
1.0
 41
1.0
 10
174.5
 20
116.42485
 40
2.0
 41
2.0
  0
MTEXT
  5
544
330
1E
100
AcDbEntity
  8
Bars
100
AcDbMText
 10
187.7817999999999
 20
110.47035
 30
0.0
 40
4.4545
 41
3.363999999999999
 71
     7
 72
     5
  1
{\fArial Narrow|b0|i0|c0|p34;2}
  7
ROMANT
 73
     1
 44
1.0
1001
ACAD
1000
MTEXTBEGIN
1070
    73
1070
     1
1070
    44
1040
1.0
1070
    74
1070
     0
1000
MTEXTEND
  0
CIRCLE
  5
545
330
1E
100
AcDbEntity
  8
Align
100
AcDbCircle
 10
186.0
 20
109.134
 30
0.0
 40
0.17818
  0
CIRCLE
  5
546
330
1E
100
AcDbEntity
  8
Align
100
AcDbCircle
 10
186.0
 20
110.47035
 30
0.0
 40
0.17818
  0
CIRCLE
  5
547
330
1E
100
AcDbEntity
  8
Align
100
AcDbCircle
 10
187.7817999999999
 20
110.47035
 30
0.0
 40
0.17818
  0
CIRCLE
  5
548
330
1E
100
AcDbEntity
  8
Align
100
AcDbCircle
 10
186.0
 20
114.92485
 30
0.0
 40
0.17818
  0
CIRCLE
  5
549
330
1E
100
AcDbEntity
  8
Align
100
AcDbCircle
 10
186.0
 20
109.134
 30
0.0
 40
0.15874
  0
CIRCLE
  5
54A
330
1E
100
AcDbEntity
  8
Align
100
AcDbCircle
 10
186.0
 20
114.92485
 30
0.0
 40
0.2
  0
CIRCLE
  5
54B
330
1E
100
AcDbEntity
  8
Align
100
AcDbCircle
 10
186.0
 20
116.42485
 30
0.0
 40
0.2
  0
CIRCLE
  5
54C
330
1E
100
AcDbEntity
  8
Align
100
AcDbCircle
 10
188.0
 20
116.42485
 30
0.0
 40
0.2
  0
MTEXT
  5
54D
330
1E
100
AcDbEntity
  8
Bars
100
AcDbMText
 10
148.6908000000001
 20
124.98845
 30
0.0
 40
8.909
 41
8.019999999999999
 71
     8
 72
     5
  1
{\fArial Narrow|b0|i0|c0|p34;-2}
  7
ROMANT
 73
     1
 44
1.0
1001
ACAD
1000
MTEXTBEGIN
1070
    73
1070
     1
1070
    44
1040
1.0
1070
    74
1070
     0
1000
MTEXTEND
  0
CIRCLE
  5
54E
330
1E
100
AcDbEntity
  8
Align
100
AcDbCircle
 10
159.3816
 20
124.09755
 30
0.0
 40
0.35636
  0
CIRCLE
  5
54F
330
1E
100
AcDbEntity
  8
Align
100
AcDbCircle
 10
155.8180000000001
 20
124.09755
 30
0.0
 40
0.35636
  0
MTEXT
  5
550
330
1E
100
AcDbEntity
  8
Bars
100
AcDbMText
 10
180.0
 20
124.9884499999999
 30
0.0
 40
8.909
 41
8.017999999999998
 71
     8
 72
     5
  1
{\fArial Narrow|b0|i0|c0|p34;-1}
  7
ROMANT
 73
     1
 44
1.0
1001
ACAD
1000
MTEXTBEGIN
1070
    73
1070
     1
1070
    44
1040
1.0
1070
    74
1070
     0
1000
MTEXTEND
  0
CIRCLE
  5
551
330
1E
100
AcDbEntity
  8
Align
100
AcDbCircle
 10
167.3454
 20
105.0
 30
0.0
 40
0.08909
  0
MTEXT
  5
552
330
1E
100
AcDbEntity
  8
Bars
100
AcDbMText
 10
161.1091
 20
102.77275
 30
0.0
 40
2.22725
 41
2.004999999999999
 71
     9
 72
     5
  1
{\fArial Narrow|b0|i0|c0|p34;2}
  7
ROMANT
 73
     1
 44
1.0
1001
ACAD
1000
MTEXTBEGIN
1070
    73
1070
     1
1070
    44
1040
1.0
1070
    74
1070
     0
1000
MTEXTEND
  0
CIRCLE
  5
553
330
1E
100
AcDbEntity
  8
Align
100
AcDbCircle
 10
162.0
 20
105.0
 30
0.0
 40
0.08909
  0
CIRCLE
  5
554
330
1E
100
AcDbEntity
  8
Align
100
AcDbCircle
 10
167.3454
 20
105.0
 30
0.0
 40
0.08909
  0
CIRCLE
  5
555
330
1E
100
AcDbEntity
  8
Align
100
AcDbCircle
 10
171.0
 20
105.0
 30
0.0
 40
0.05
  0
CIRCLE
  5
556
330
1E
100
AcDbEntity
  8
Align
100
AcDbCircle
 10
174.0
 20
105.0
 30
0.0
 40
0.05
  0
MTEXT
  5
557
330
1E
100
AcDbEntity
  8
Bars
100
AcDbMText
 10
174.5
 20
103.75
 30
0.0
 40
1.25
 41
0.9440000000000001
 71
     7
 72
     5
  1
{\fArial Narrow|b0|i0|c0|p34;1}
  7
ROMANT
 73
     1
 44
1.0
1001
ACAD
1000
MTEXTBEGIN
1070
    73
1070
     1
1070
    44
1040
1.0
1070
    74
1070
     0
1000
MTEXTEND
  0
MTEXT
  5
558
330
1E
100
AcDbEntity
  8
Bars
100
AcDbMText
 10
161.37004
 20
95.65204249999998
 30
0.0
 40
1.5749
 41
1.416999999999999
 71
     9
 72
     5
  1
{\fArial Narrow|b0|i0|c0|p34;5}
  7
ROMANT
 73
     1
 44
1.0
1001
ACAD
1000
MTEXTBEGIN
1070
    73
1070
     1
1070
    44
1040
1.0
1070
    74
1070
     0
1000
MTEXTEND
  0
MTEXT
  5
559
330
1E
100
AcDbEntity
  8
Bars
100
AcDbMText
 10
161.29289
 20
97.757275
 30
0.0
 40
1.767775
 41
1.591
 71
     9
 72
     5
  1
{\fArial Narrow|b0|i0|c0|p34;4}
  7
ROMANT
 73
     1
 44
1.0
1001
ACAD
1000
MTEXTBEGIN
1070
    73
1070
     1
1070
    44
1040
1.0
1070
    74
1070
     0
1000
MTEXTEND
  0
MTEXT
  5
55A
330
1E
100
AcDbEntity
  8
Bars
100
AcDbMText
 10
161.2063
 20
100.120325
 30
0.0
 40
1.984249999999999
 41
1.786
 71
     9
 72
     5
  1
{\fArial Narrow|b0|i0|c0|p34;3}
  7
ROMANT
 73
     1
 44
1.0
1001
ACAD
1000
MTEXTBEGIN
1070
    73
1070
     1
1070
    44
1040
1.0
1070
    74
1070
     0
1000
MTEXTEND
  0
LWPOLYLINE
  5
55B
330
1E
100
AcDbEntity
  8
Bars
100
AcDbPolyline
 90
        2
 70
     0
 10
165.62227
 20
97.22694249999998
 40
0.31498
 41
0.31498
 10
165.62227
 20
95.65204249999998
 40
0.6299600000000001
 41
0.6299600000000001
  0
LWPOLYLINE
  5
55C
330
1E
100
AcDbEntity
  8
Bars
100
AcDbPolyline
 90
        2
 70
     0
 10
164.36235
 20
97.22694249999998
 40
0.31498
 41
0.31498
 10
164.36235
 20
95.65204249999998
 40
0.6299600000000001
 41
0.6299600000000001
  0
LWPOLYLINE
  5
55D
330
1E
100
AcDbEntity
  8
Bars
100
AcDbPolyline
 90
        2
 70
     0
 10
163.5749
 20
97.0694525
 40
0.31498
 41
0.31498
 10
162.0
 20
97.0694525
 40
0.6299600000000001
 41
0.6299600000000001
  0
LWPOLYLINE
  5
55E
330
1E
100
AcDbEntity
  8
Bars
100
AcDbPolyline
 90
        2
 70
     0
 10
164.99231
 20
97.22694249999998
 40
0.31498
 41
0.31498
 10
164.99231
 20
95.65204249999998
 40
0.6299600000000001
 41
0.6299600000000001
  0
CIRCLE
  5
55F
330
1E
100
AcDbEntity
  8
Align
100
AcDbCircle
 10
162.0
 20
97.22694249999999
 30
0.0
 40
0.062996
  0
CIRCLE
  5
560
330
1E
100
AcDbEntity
  8
Align
100
AcDbCircle
 10
165.77976
 20
97.22694249999999
 30
0.0
 40
0.062996
  0
CIRCLE
  5
561
330
1E
100
AcDbEntity
  8
Align
100
AcDbCircle
 10
166.24266
 20
97.22694249999999
 30
0.0
 40
0.070711
  0
CIRCLE
  5
562
330
1E
100
AcDbEntity
  8
Align
100
AcDbCircle
 10
162.0
 20
97.22694249999999
 30
0.0
 40
0.070711
  0
CIRCLE
  5
563
330
1E
100
AcDbEntity
  8
Align
100
AcDbCircle
 10
165.77976
 20
95.1795725
 30
0.0
 40
0.062996
  0
CIRCLE
  5
564
330
1E
100
AcDbEntity
  8
Align
100
AcDbCircle
 10
165.77976
 20
95.65204249999998
 30
0.0
 40
0.062996
  0
LWPOLYLINE
  5
565
330
1E
100
AcDbEntity
  8
Bars
100
AcDbPolyline
 90
        2
 70
     0
 10
163.403075
 20
95.03926499999998
 40
0.280615
 41
0.280615
 10
162.0
 20
95.03926499999998
 40
0.5612300000000001
 41
0.5612300000000001
  0
LWPOLYLINE
  5
566
330
1E
100
AcDbEntity
  8
Bars
100
AcDbPolyline
 90
        2
 70
     0
 10
163.403075
 20
94.47803499999999
 40
0.280615
 41
0.280615
 10
162.0
 20
94.47803499999999
 40
0.5612300000000001
 41
0.5612300000000001
  0
LWPOLYLINE
  5
567
330
1E
100
AcDbEntity
  8
Bars
100
AcDbPolyline
 90
        2
 70
     0
 10
163.403075
 20
93.91680499999999
 40
0.280615
 41
0.280615
 10
162.0
 20
93.91680499999999
 40
0.5612300000000001
 41
0.5612300000000001
  0
LWPOLYLINE
  5
568
330
1E
100
AcDbEntity
  8
Bars
100
AcDbPolyline
 90
        2
 70
     0
 10
163.5749
 20
96.43949249999998
 40
0.31498
 41
0.31498
 10
162.0
 20
96.43949249999998
 40
0.6299600000000001
 41
0.6299600000000001
  0
LWPOLYLINE
  5
569
330
1E
100
AcDbEntity
  8
Bars
100
AcDbPolyline
 90
        2
 70
     0
 10
163.5749
 20
95.80953249999998
 40
0.31498
 41
0.31498
 10
162.0
 20
95.80953249999998
 40
0.6299600000000001
 41
0.6299600000000001
  0
MTEXT
  5
56A
330
1E
100
AcDbEntity
  8
Bars
100
AcDbMText
 10
161.43877
 20
93.77649749999999
 30
0.0
 40
1.403075
 41
1.262999999999999
 71
     9
 72
     5
  1
{\fArial Narrow|b0|i0|c0|p34;6}
  7
ROMANT
 73
     1
 44
1.0
1001
ACAD
1000
MTEXTBEGIN
1070
    73
1070
     1
1070
    44
1040
1.0
1070
    74
1070
     0
1000
MTEXTEND
  0
CIRCLE
  5
56B
330
1E
100
AcDbEntity
  8
Align
100
AcDbCircle
 10
162.0
 20
93.35557499999998
 30
0.0
 40
0.056123
  0
CIRCLE
  5
56C
330
1E
100
AcDbEntity
  8
Align
100
AcDbCircle
 10
162.0
 20
93.77649749999999
 30
0.0
 40
0.056123
  0
CIRCLE
  5
56D
330
1E
100
AcDbEntity
  8
Align
100
AcDbCircle
 10
161.43877
 20
93.77649749999999
 30
0.0
 40
0.056123
  0
CIRCLE
  5
56E
330
1E
100
AcDbEntity
  8
Align
100
AcDbCircle
 10
162.0
 20
95.1795725
 30
0.0
 40
0.056123
  0
CIRCLE
  5
56F
330
1E
100
AcDbEntity
  8
Align
100
AcDbCircle
 10
162.0
 20
95.1795725
 30
0.0
 40
0.062996
  0
CIRCLE
  5
570
330
1E
100
AcDbEntity
  8
Align
100
AcDbCircle
 10
162.0
 20
95.65204249999998
 30
0.0
 40
0.062996
  0
CIRCLE
  5
571
330
1E
100
AcDbEntity
  8
Align
100
AcDbCircle
 10
161.37004
 20
95.65204249999998
 30
0.0
 40
0.062996
  0
CIRCLE
  5
572
330
1E
100
AcDbEntity
  8
Align
100
AcDbCircle
 10
165.36738
 20
93.35557499999998
 30
0.0
 40
0.056123
  0
LWPOLYLINE
  5
573
330
1E
100
AcDbEntity
  8
Bars
100
AcDbPolyline
 90
        2
 70
     0
 10
165.2270725
 20
95.17957249999998
 40
0.280615
 41
0.280615
 10
165.2270725
 20
93.77649749999999
 40
0.5612300000000001
 41
0.5612300000000001
  0
CIRCLE
  5
574
330
1E
100
AcDbEntity
  8
Align
100
AcDbCircle
 10
165.36738
 20
93.77649749999999
 30
0.0
 40
0.056123
  0
LWPOLYLINE
  5
575
330
1E
100
AcDbEntity
  8
Bars
100
AcDbPolyline
 90
        2
 70
     0
 10
164.1046125
 20
95.17957249999998
 40
0.280615
 41
0.280615
 10
164.1046125
 20
93.77649749999999
 40
0.5612300000000001
 41
0.5612300000000001
  0
LWPOLYLINE
  5
576
330
1E
100
AcDbEntity
  8
Bars
100
AcDbPolyline
 90
        2
 70
     0
 10
164.6658425
 20
95.17957249999998
 40
0.280615
 41
0.280615
 10
164.6658425
 20
93.77649749999999
 40
0.5612300000000001
 41
0.5612300000000001
  0
CIRCLE
  5
577
330
1E
100
AcDbEntity
  8
Align
100
AcDbCircle
 10
165.36738
 20
95.1795725
 30
0.0
 40
0.056123
  0
CIRCLE
  5
578
330
1E
100
AcDbEntity
  8
Align
100
AcDbCircle
 10
168.0
 20
93.02649749999998
 30
0.0
 40
0.1
  0
LWPOLYLINE
  5
579
330
1E
100
AcDbEntity
  8
Bars
100
AcDbPolyline
 90
        2
 70
     0
 10
168.25
 20
96.27649749999998
 40
0.5
 41
0.5
 10
168.25
 20
93.77649749999998
 40
1.0
 41
1.0
  0
CIRCLE
  5
57A
330
1E
100
AcDbEntity
  8
Align
100
AcDbCircle
 10
165.92861
 20
93.77649749999999
 30
0.0
 40
0.056123
  0
CIRCLE
  5
57B
330
1E
100
AcDbEntity
  8
Align
100
AcDbCircle
 10
166.40972
 20
95.65204249999998
 30
0.0
 40
0.062996
  0
CIRCLE
  5
57C
330
1E
100
AcDbEntity
  8
Align
100
AcDbCircle
 10
168.0
 20
96.27649749999999
 30
0.0
 40
0.1
  0
LWPOLYLINE
  5
57D
330
1E
100
AcDbEntity
  8
Bars
100
AcDbPolyline
 90
        2
 70
     0
 10
170.25
 20
96.27649749999998
 40
0.5
 41
0.5
 10
170.25
 20
93.77649749999998
 40
1.0
 41
1.0
  0
LWPOLYLINE
  5
57E
330
1E
100
AcDbEntity
  8
Bars
100
AcDbPolyline
 90
        2
 70
     0
 10
169.25
 20
96.27649749999998
 40
0.5
 41
0.5
 10
169.25
 20
93.77649749999998
 40
1.0
 41
1.0
  0
LWPOLYLINE
  5
57F
330
1E
100
AcDbEntity
  8
Bars
100
AcDbPolyline
 90
        2
 70
     0
 10
165.770075
 20
102.104575
 40
0.39685
 41
0.39685
 10
165.770075
 20
100.120325
 40
0.7937
 41
0.7937
  0
LWPOLYLINE
  5
580
330
1E
100
AcDbEntity
  8
Bars
100
AcDbPolyline
 90
        2
 70
     0
 10
164.976375
 20
102.104575
 40
0.39685
 41
0.39685
 10
164.976375
 20
100.120325
 40
0.7937
 41
0.7937
  0
LWPOLYLINE
  5
581
330
1E
100
AcDbEntity
  8
Bars
100
AcDbPolyline
 90
        2
 70
     0
 10
163.98425
 20
101.11245
 40
0.39685
 41
0.39685
 10
162.0
 20
101.11245
 40
0.7937
 41
0.7937
  0
LWPOLYLINE
  5
582
330
1E
100
AcDbEntity
  8
Bars
100
AcDbPolyline
 90
        2
 70
     0
 10
163.98425
 20
100.31875
 40
0.39685
 41
0.39685
 10
162.0
 20
100.31875
 40
0.7937
 41
0.7937
  0
LWPOLYLINE
  5
583
330
1E
100
AcDbEntity
  8
Bars
100
AcDbPolyline
 90
        2
 70
     0
 10
163.767775
 20
99.34827249999999
 40
0.353555
 41
0.353555
 10
162.0
 20
99.34827249999999
 40
0.7071100000000001
 41
0.7071100000000001
  0
LWPOLYLINE
  5
584
330
1E
100
AcDbEntity
  8
Bars
100
AcDbPolyline
 90
        2
 70
     0
 10
163.767775
 20
98.6411625
 40
0.353555
 41
0.353555
 10
162.0
 20
98.6411625
 40
0.7071100000000001
 41
0.7071100000000001
  0
LWPOLYLINE
  5
585
330
1E
100
AcDbEntity
  8
Bars
100
AcDbPolyline
 90
        2
 70
     0
 10
163.767775
 20
97.93405249999999
 40
0.353555
 41
0.353555
 10
162.0
 20
97.93405249999999
 40
0.7071100000000001
 41
0.7071100000000001
  0
CIRCLE
  5
586
330
1E
100
AcDbEntity
  8
Align
100
AcDbCircle
 10
162.0
 20
99.52505
 30
0.0
 40
0.07937
  0
CIRCLE
  5
587
330
1E
100
AcDbEntity
  8
Align
100
AcDbCircle
 10
162.0
 20
100.120325
 30
0.0
 40
0.07937
  0
CIRCLE
  5
588
330
1E
100
AcDbEntity
  8
Align
100
AcDbCircle
 10
161.2063
 20
100.120325
 30
0.0
 40
0.07937
  0
CIRCLE
  5
589
330
1E
100
AcDbEntity
  8
Align
100
AcDbCircle
 10
162.0
 20
97.757275
 30
0.0
 40
0.070711
  0
CIRCLE
  5
58A
330
1E
100
AcDbEntity
  8
Align
100
AcDbCircle
 10
161.29289
 20
97.757275
 30
0.0
 40
0.070711
  0
CIRCLE
  5
58B
330
1E
100
AcDbEntity
  8
Align
100
AcDbCircle
 10
162.0
 20
99.52505
 30
0.0
 40
0.070711
  0
LWPOLYLINE
  5
58C
330
1E
100
AcDbEntity
  8
Bars
100
AcDbPolyline
 90
        2
 70
     0
 10
164.6516625
 20
99.52504999999998
 40
0.353555
 41
0.353555
 10
164.6516625
 20
97.75727499999998
 40
0.7071100000000001
 41
0.7071100000000001
  0
LWPOLYLINE
  5
58D
330
1E
100
AcDbEntity
  8
Bars
100
AcDbPolyline
 90
        2
 70
     0
 10
165.3587725
 20
99.52504999999998
 40
0.353555
 41
0.353555
 10
165.3587725
 20
97.75727499999998
 40
0.7071100000000001
 41
0.7071100000000001
  0
LWPOLYLINE
  5
58E
330
1E
100
AcDbEntity
  8
Bars
100
AcDbPolyline
 90
        2
 70
     0
 10
164.22725
 20
104.777275
 40
0.4454500000000001
 41
0.4454500000000001
 10
162.0
 20
104.777275
 40
0.8909
 41
0.8909
  0
LWPOLYLINE
  5
58F
330
1E
100
AcDbEntity
  8
Bars
100
AcDbPolyline
 90
        2
 70
     0
 10
164.22725
 20
103.886375
 40
0.4454500000000001
 41
0.4454500000000001
 10
162.0
 20
103.886375
 40
0.8909
 41
0.8909
  0
LWPOLYLINE
  5
590
330
1E
100
AcDbEntity
  8
Bars
100
AcDbPolyline
 90
        2
 70
     0
 10
164.22725
 20
102.995475
 40
0.4454500000000001
 41
0.4454500000000001
 10
162.0
 20
102.995475
 40
0.8909
 41
0.8909
  0
LWPOLYLINE
  5
591
330
1E
100
AcDbEntity
  8
Bars
100
AcDbPolyline
 90
        2
 70
     0
 10
163.98425
 20
101.90615
 40
0.39685
 41
0.39685
 10
162.0
 20
101.90615
 40
0.7937
 41
0.7937
  0
CIRCLE
  5
592
330
1E
100
AcDbEntity
  8
Align
100
AcDbCircle
 10
162.0
 20
102.104575
 30
0.0
 40
0.08909
  0
CIRCLE
  5
593
330
1E
100
AcDbEntity
  8
Align
100
AcDbCircle
 10
162.0
 20
102.77275
 30
0.0
 40
0.08909
  0
CIRCLE
  5
594
330
1E
100
AcDbEntity
  8
Align
100
AcDbCircle
 10
161.1091
 20
102.77275
 30
0.0
 40
0.08909
  0
CIRCLE
  5
595
330
1E
100
AcDbEntity
  8
Align
100
AcDbCircle
 10
162.0
 20
102.104575
 30
0.0
 40
0.07937
  0
LWPOLYLINE
  5
596
330
1E
100
AcDbEntity
  8
Bars
100
AcDbPolyline
 90
        2
 70
     0
 10
165.340875
 20
105.0
 40
0.4454500000000001
 41
0.4454500000000001
 10
165.340875
 20
102.77275
 40
0.8909
 41
0.8909
  0
LWPOLYLINE
  5
597
330
1E
100
AcDbEntity
  8
Bars
100
AcDbPolyline
 90
        2
 70
     0
 10
166.563775
 20
102.104575
 40
0.39685
 41
0.39685
 10
166.563775
 20
100.120325
 40
0.7937
 41
0.7937
  0
CIRCLE
  5
598
330
1E
100
AcDbEntity
  8
Align
100
AcDbCircle
 10
167.5559
 20
100.120325
 30
0.0
 40
0.07937
  0
CIRCLE
  5
599
330
1E
100
AcDbEntity
  8
Align
100
AcDbCircle
 10
166.7622
 20
99.52505
 30
0.0
 40
0.07937
  0
CIRCLE
  5
59A
330
1E
100
AcDbEntity
  8
Align
100
AcDbCircle
 10
166.7622
 20
100.120325
 30
0.0
 40
0.07937
  0
CIRCLE
  5
59B
330
1E
100
AcDbEntity
  8
Align
100
AcDbCircle
 10
166.94977
 20
97.757275
 30
0.0
 40
0.070711
  0
LWPOLYLINE
  5
59C
330
1E
100
AcDbEntity
  8
Bars
100
AcDbPolyline
 90
        2
 70
     0
 10
166.0658825
 20
99.52504999999998
 40
0.353555
 41
0.353555
 10
166.0658825
 20
97.75727499999998
 40
0.7071100000000001
 41
0.7071100000000001
  0
CIRCLE
  5
59D
330
1E
100
AcDbEntity
  8
Align
100
AcDbCircle
 10
166.24266
 20
97.757275
 30
0.0
 40
0.070711
  0
CIRCLE
  5
59E
330
1E
100
AcDbEntity
  8
Align
100
AcDbCircle
 10
166.24266
 20
99.52505
 30
0.0
 40
0.070711
  0
CIRCLE
  5
59F
330
1E
100
AcDbEntity
  8
Align
100
AcDbCircle
 10
170.0
 20
99.52505
 30
0.0
 40
0.3875423749477988
  0
CIRCLE
  5
5A0
330
1E
100
AcDbEntity
  8
Align
100
AcDbCircle
 10
168.2363
 20
102.77275
 30
0.0
 40
0.08909
  0
LWPOLYLINE
  5
5A1
330
1E
100
AcDbEntity
  8
Bars
100
AcDbPolyline
 90
        4
 70
     1
 43
0.0
 10
170.46355
 20
105.0
 10
168.2363
 20
105.0
 10
168.2363
 20
102.77275
 10
170.46355
 20
102.77275
  0
LWPOLYLINE
  5
5A2
330
1E
100
AcDbEntity
  8
Bars
100
AcDbPolyline
 90
        2
 70
     0
 43
2.227250000000026
 10
169.349925
 20
105.0
 10
169.349925
 20
102.77275
  0
CIRCLE
  5
5A3
330
1E
100
AcDbEntity
  8
Align
100
AcDbCircle
 10
167.3454
 20
102.104575
 30
0.0
 40
0.08909
  0
LWPOLYLINE
  5
5A4
330
1E
100
AcDbEntity
  8
Bars
100
AcDbPolyline
 90
        2
 70
     0
 10
167.122675
 20
105.0
 40
0.4454500000000001
 41
0.4454500000000001
 10
167.122675
 20
102.77275
 40
0.8909
 41
0.8909
  0
CIRCLE
  5
5A5
330
1E
100
AcDbEntity
  8
Align
100
AcDbCircle
 10
167.3454
 20
102.77275
 30
0.0
 40
0.08909
  0
LWPOLYLINE
  5
5A6
330
1E
100
AcDbEntity
  8
Bars
100
AcDbPolyline
 90
        2
 70
     0
 10
166.231775
 20
105.0
 40
0.4454500000000001
 41
0.4454500000000001
 10
166.231775
 20
102.77275
 40
0.8909
 41
0.8909
  0
CIRCLE
  5
5A7
330
1E
100
AcDbEntity
  8
Align
100
AcDbCircle
 10
166.7622
 20
102.104575
 30
0.0
 40
0.07937
  0
MTEXT
  5
5A8
330
1E
100
AcDbEntity
  8
Bars
100
AcDbMText
 10
175.0
 20
93.77649749999999
 30
0.0
 40
2.5
 41
1.888
 71
     7
 72
     5
  1
{\fArial Narrow|b0|i0|c0|p34;1}
  7
ROMANT
 73
     1
 44
1.0
1001
ACAD
1000
MTEXTBEGIN
1070
    73
1070
     1
1070
    44
1040
1.0
1070
    74
1070
     0
1000
MTEXTEND
  0
CIRCLE
  5
5A9
330
1E
100
AcDbEntity
  8
Align
100
AcDbCircle
 10
174.0
 20
93.02649749999998
 30
0.0
 40
0.1
  0
LWPOLYLINE
  5
5AA
330
1E
100
AcDbEntity
  8
Bars
100
AcDbPolyline
 90
        2
 70
     0
 10
171.5
 20
94.0264975
 40
0.5
 41
0.5
 10
174.0
 20
94.0264975
 40
1.0
 41
1.0
  0
LWPOLYLINE
  5
5AB
330
1E
100
AcDbEntity
  8
Bars
100
AcDbPolyline
 90
        2
 70
     0
 10
171.5
 20
95.02649749999999
 40
0.5
 41
0.5
 10
174.0
 20
95.02649749999999
 40
1.0
 41
1.0
  0
LWPOLYLINE
  5
5AC
330
1E
100
AcDbEntity
  8
Bars
100
AcDbPolyline
 90
        2
 70
     0
 10
171.5
 20
96.02649749999999
 40
0.5
 41
0.5
 10
174.0
 20
96.02649749999999
 40
1.0
 41
1.0
  0
CIRCLE
  5
5AD
330
1E
100
AcDbEntity
  8
Align
100
AcDbCircle
 10
174.0
 20
93.77649749999999
 30
0.0
 40
0.1
  0
CIRCLE
  5
5AE
330
1E
100
AcDbEntity
  8
Align
100
AcDbCircle
 10
175.0
 20
93.77649749999999
 30
0.0
 40
0.1
  0
CIRCLE
  5
5AF
330
1E
100
AcDbEntity
  8
Align
100
AcDbCircle
 10
174.0
 20
96.27649749999999
 30
0.0
 40
0.1
  0
MTEXT
  5
5B0
330
1E
100
AcDbEntity
  8
Bars
100
AcDbMText
 10
174.39685
 20
100.9351625
 30
0.0
 40
0.9921249999999998
 41
0.7490000000000001
 71
     7
 72
     5
  1
{\fArial Narrow|b0|i0|c0|p34;3}
  7
ROMANT
 73
     1
 44
1.0
1001
ACAD
1000
MTEXTBEGIN
1070
    73
1070
     1
1070
    44
1040
1.0
1070
    74
1070
     0
1000
MTEXTEND
  0
LWPOLYLINE
  5
5B1
330
1E
100
AcDbEntity
  8
Bars
100
AcDbPolyline
 90
        2
 70
     0
 10
172.5118125
 20
101.9272875
 40
0.198425
 41
0.198425
 10
172.5118125
 20
100.9351625
 40
0.39685
 41
0.39685
  0
LWPOLYLINE
  5
5B2
330
1E
100
AcDbEntity
  8
Bars
100
AcDbPolyline
 90
        2
 70
     0
 10
172.1149625
 20
101.9272875
 40
0.198425
 41
0.198425
 10
172.1149625
 20
100.9351625
 40
0.39685
 41
0.39685
  0
LWPOLYLINE
  5
5B3
330
1E
100
AcDbEntity
  8
Bars
100
AcDbPolyline
 90
        2
 70
     0
 10
171.7181125
 20
101.9272875
 40
0.198425
 41
0.198425
 10
171.7181125
 20
100.9351625
 40
0.39685
 41
0.39685
  0
LWPOLYLINE
  5
5B4
330
1E
100
AcDbEntity
  8
Bars
100
AcDbPolyline
 90
        2
 70
     0
 10
173.007875
 20
101.034375
 40
0.198425
 41
0.198425
 10
174.0
 20
101.034375
 40
0.39685
 41
0.39685
  0
LWPOLYLINE
  5
5B5
330
1E
100
AcDbEntity
  8
Bars
100
AcDbPolyline
 90
        2
 70
     0
 10
173.2984625
 20
97.83340250000001
 40
0.1403075
 41
0.1403075
 10
174.0
 20
97.83340250000001
 40
0.280615
 41
0.280615
  0
LWPOLYLINE
  5
5B6
330
1E
100
AcDbEntity
  8
Bars
100
AcDbPolyline
 90
        2
 70
     0
 10
173.2984625
 20
98.11401750000001
 40
0.1403075
 41
0.1403075
 10
174.0
 20
98.11401750000001
 40
0.280615
 41
0.280615
  0
LWPOLYLINE
  5
5B7
330
1E
100
AcDbEntity
  8
Bars
100
AcDbPolyline
 90
        2
 70
     0
 10
173.2984625
 20
98.39463250000001
 40
0.1403075
 41
0.1403075
 10
174.0
 20
98.39463250000001
 40
0.280615
 41
0.280615
  0
LWPOLYLINE
  5
5B8
330
1E
100
AcDbEntity
  8
Bars
100
AcDbPolyline
 90
        2
 70
     0
 10
173.21255
 20
98.77976625000002
 40
0.15749
 41
0.15749
 10
174.0
 20
98.77976625000002
 40
0.31498
 41
0.31498
  0
LWPOLYLINE
  5
5B9
330
1E
100
AcDbEntity
  8
Bars
100
AcDbPolyline
 90
        2
 70
     0
 10
173.21255
 20
99.09474625000001
 40
0.15749
 41
0.15749
 10
174.0
 20
99.09474625000001
 40
0.31498
 41
0.31498
  0
LWPOLYLINE
  5
5BA
330
1E
100
AcDbEntity
  8
Bars
100
AcDbPolyline
 90
        2
 70
     0
 10
173.21255
 20
99.40972625
 40
0.15749
 41
0.15749
 10
174.0
 20
99.40972625
 40
0.31498
 41
0.31498
  0
LWPOLYLINE
  5
5BB
330
1E
100
AcDbEntity
  8
Bars
100
AcDbPolyline
 90
        2
 70
     0
 10
173.1161125
 20
99.84202625000001
 40
0.1767775
 41
0.1767775
 10
174.0
 20
99.84202625000001
 40
0.353555
 41
0.353555
  0
LWPOLYLINE
  5
5BC
330
1E
100
AcDbEntity
  8
Bars
100
AcDbPolyline
 90
        2
 70
     0
 10
173.1161125
 20
100.19558125
 40
0.1767775
 41
0.1767775
 10
174.0
 20
100.19558125
 40
0.353555
 41
0.353555
  0
LWPOLYLINE
  5
5BD
330
1E
100
AcDbEntity
  8
Bars
100
AcDbPolyline
 90
        2
 70
     0
 10
173.1161125
 20
100.54913625
 40
0.1767775
 41
0.1767775
 10
174.0
 20
100.54913625
 40
0.353555
 41
0.353555
  0
LWPOLYLINE
  5
5BE
330
1E
100
AcDbEntity
  8
Bars
100
AcDbPolyline
 90
        2
 70
     0
 10
172.94769375
 20
98.46478625000001
 40
0.1403075
 41
0.1403075
 10
172.94769375
 20
97.76324875
 40
0.280615
 41
0.280615
  0
LWPOLYLINE
  5
5BF
330
1E
100
AcDbEntity
  8
Bars
100
AcDbPolyline
 90
        2
 70
     0
 10
172.66707875
 20
98.46478625000001
 40
0.1403075
 41
0.1403075
 10
172.66707875
 20
97.76324875
 40
0.280615
 41
0.280615
  0
CIRCLE
  5
5C0
330
1E
100
AcDbEntity
  8
Align
100
AcDbCircle
 10
172.31631
 20
97.55278750000002
 30
0.0
 40
0.0280615
  0
LWPOLYLINE
  5
5C1
330
1E
100
AcDbEntity
  8
Bars
100
AcDbPolyline
 90
        2
 70
     0
 10
172.38646375
 20
98.46478625000001
 40
0.1403075
 41
0.1403075
 10
172.38646375
 20
97.76324875
 40
0.280615
 41
0.280615
  0
CIRCLE
  5
5C2
330
1E
100
AcDbEntity
  8
Align
100
AcDbCircle
 10
172.31631
 20
98.46478625000001
 30
0.0
 40
0.0280615
  0
LWPOLYLINE
  5
5C3
330
1E
100
AcDbEntity
  8
Bars
100
AcDbPolyline
 90
        2
 70
     0
 10
172.818825
 20
99.48847125
 40
0.15749
 41
0.15749
 10
172.818825
 20
98.70102125
 40
0.31498
 41
0.31498
  0
LWPOLYLINE
  5
5C4
330
1E
100
AcDbEntity
  8
Bars
100
AcDbPolyline
 90
        2
 70
     0
 10
172.503845
 20
99.48847125
 40
0.15749
 41
0.15749
 10
172.503845
 20
98.70102125
 40
0.31498
 41
0.31498
  0
CIRCLE
  5
5C5
330
1E
100
AcDbEntity
  8
Align
100
AcDbCircle
 10
172.11012
 20
98.46478625000001
 30
0.0
 40
0.031498
  0
LWPOLYLINE
  5
5C6
330
1E
100
AcDbEntity
  8
Bars
100
AcDbPolyline
 90
        2
 70
     0
 10
172.188865
 20
99.48847125
 40
0.15749
 41
0.15749
 10
172.188865
 20
98.70102125
 40
0.31498
 41
0.31498
  0
CIRCLE
  5
5C7
330
1E
100
AcDbEntity
  8
Align
100
AcDbCircle
 10
172.11012
 20
99.48847125
 30
0.0
 40
0.031498
  0
LWPOLYLINE
  5
5C8
330
1E
100
AcDbEntity
  8
Bars
100
AcDbPolyline
 90
        2
 70
     0
 10
172.67416875
 20
100.637525
 40
0.1767775
 41
0.1767775
 10
172.67416875
 20
99.75363749999999
 40
0.353555
 41
0.353555
  0
LWPOLYLINE
  5
5C9
330
1E
100
AcDbEntity
  8
Bars
100
AcDbPolyline
 90
        2
 70
     0
 10
172.32061375
 20
100.637525
 40
0.1767775
 41
0.1767775
 10
172.32061375
 20
99.75363749999999
 40
0.353555
 41
0.353555
  0
CIRCLE
  5
5CA
330
1E
100
AcDbEntity
  8
Align
100
AcDbCircle
 10
171.87867
 20
99.48847125
 30
0.0
 40
0.0353555
  0
LWPOLYLINE
  5
5CB
330
1E
100
AcDbEntity
  8
Bars
100
AcDbPolyline
 90
        2
 70
     0
 10
171.96705875
 20
100.637525
 40
0.1767775
 41
0.1767775
 10
171.96705875
 20
99.75363749999999
 40
0.353555
 41
0.353555
  0
CIRCLE
  5
5CC
330
1E
100
AcDbEntity
  8
Align
100
AcDbCircle
 10
171.87867
 20
100.637525
 30
0.0
 40
0.0353555
  0
CIRCLE
  5
5CD
330
1E
100
AcDbEntity
  8
Align
100
AcDbCircle
 10
171.6189
 20
100.637525
 30
0.0
 40
0.039685
  0
MTEXT
  5
5CE
330
1E
100
AcDbEntity
  8
Bars
100
AcDbMText
 10
174.280615
 20
97.76324875
 30
0.0
 40
0.7015375000000001
 41
0.5300000000000001
 71
     7
 72
     5
  1
{\fArial Narrow|b0|i0|c0|p34;6}
  7
ROMANT
 73
     1
 44
1.0
1001
ACAD
1000
MTEXTBEGIN
1070
    73
1070
     1
1070
    44
1040
1.0
1070
    74
1070
     0
1000
MTEXTEND
  0
MTEXT
  5
5CF
330
1E
100
AcDbEntity
  8
Bars
100
AcDbMText
 10
174.31498
 20
98.70102125
 30
0.0
 40
0.7874500000000002
 41
0.595
 71
     7
 72
     5
  1
{\fArial Narrow|b0|i0|c0|p34;5}
  7
ROMANT
 73
     1
 44
1.0
1001
ACAD
1000
MTEXTBEGIN
1070
    73
1070
     1
1070
    44
1040
1.0
1070
    74
1070
     0
1000
MTEXTEND
  0
MTEXT
  5
5D0
330
1E
100
AcDbEntity
  8
Bars
100
AcDbMText
 10
174.353555
 20
99.75363749999999
 30
0.0
 40
0.8838874999999999
 41
0.668
 71
     7
 72
     5
  1
{\fArial Narrow|b0|i0|c0|p34;4}
  7
ROMANT
 73
     1
 44
1.0
1001
ACAD
1000
MTEXTBEGIN
1070
    73
1070
     1
1070
    44
1040
1.0
1070
    74
1070
     0
1000
MTEXTEND
  0
CIRCLE
  5
5D1
330
1E
100
AcDbEntity
  8
Align
100
AcDbCircle
 10
174.0
 20
97.55278750000002
 30
0.0
 40
0.0280615
  0
CIRCLE
  5
5D2
330
1E
100
AcDbEntity
  8
Align
100
AcDbCircle
 10
174.0
 20
97.76324875
 30
0.0
 40
0.0280615
  0
CIRCLE
  5
5D3
330
1E
100
AcDbEntity
  8
Align
100
AcDbCircle
 10
174.280615
 20
97.76324875
 30
0.0
 40
0.0280615
  0
CIRCLE
  5
5D4
330
1E
100
AcDbEntity
  8
Align
100
AcDbCircle
 10
174.0
 20
98.46478625000001
 30
0.0
 40
0.0280615
  0
CIRCLE
  5
5D5
330
1E
100
AcDbEntity
  8
Align
100
AcDbCircle
 10
174.0
 20
98.46478625000001
 30
0.0
 40
0.031498
  0
CIRCLE
  5
5D6
330
1E
100
AcDbEntity
  8
Align
100
AcDbCircle
 10
174.0
 20
98.70102125
 30
0.0
 40
0.031498
  0
CIRCLE
  5
5D7
330
1E
100
AcDbEntity
  8
Align
100
AcDbCircle
 10
174.31498
 20
98.70102125
 30
0.0
 40
0.031498
  0
CIRCLE
  5
5D8
330
1E
100
AcDbEntity
  8
Align
100
AcDbCircle
 10
174.0
 20
99.48847125
 30
0.0
 40
0.031498
  0
CIRCLE
  5
5D9
330
1E
100
AcDbEntity
  8
Align
100
AcDbCircle
 10
174.0
 20
99.48847125
 30
0.0
 40
0.0353555
  0
CIRCLE
  5
5DA
330
1E
100
AcDbEntity
  8
Align
100
AcDbCircle
 10
174.0
 20
99.75363749999999
 30
0.0
 40
0.0353555
  0
CIRCLE
  5
5DB
330
1E
100
AcDbEntity
  8
Align
100
AcDbCircle
 10
174.353555
 20
99.75363749999999
 30
0.0
 40
0.0353555
  0
CIRCLE
  5
5DC
330
1E
100
AcDbEntity
  8
Align
100
AcDbCircle
 10
174.0
 20
100.637525
 30
0.0
 40
0.0353555
  0
CIRCLE
  5
5DD
330
1E
100
AcDbEntity
  8
Align
100
AcDbCircle
 10
174.0
 20
100.637525
 30
0.0
 40
0.039685
  0
CIRCLE
  5
5DE
330
1E
100
AcDbEntity
  8
Align
100
AcDbCircle
 10
174.0
 20
100.9351625
 30
0.0
 40
0.039685
  0
CIRCLE
  5
5DF
330
1E
100
AcDbEntity
  8
Align
100
AcDbCircle
 10
174.39685
 20
100.9351625
 30
0.0
 40
0.039685
  0
LWPOLYLINE
  5
5E0
330
1E
100
AcDbEntity
  8
Bars
100
AcDbPolyline
 90
        2
 70
     0
 10
172.886375
 20
102.3727375
 40
0.222725
 41
0.222725
 10
174.0
 20
102.3727375
 40
0.4454500000000001
 41
0.4454500000000001
  0
LWPOLYLINE
  5
5E1
330
1E
100
AcDbEntity
  8
Bars
100
AcDbPolyline
 90
        2
 70
     0
 10
172.886375
 20
102.8181875
 40
0.222725
 41
0.222725
 10
174.0
 20
102.8181875
 40
0.4454500000000001
 41
0.4454500000000001
  0
LWPOLYLINE
  5
5E2
330
1E
100
AcDbEntity
  8
Bars
100
AcDbPolyline
 90
        2
 70
     0
 10
172.886375
 20
103.2636375
 40
0.222725
 41
0.222725
 10
174.0
 20
103.2636375
 40
0.4454500000000001
 41
0.4454500000000001
  0
LWPOLYLINE
  5
5E3
330
1E
100
AcDbEntity
  8
Bars
100
AcDbPolyline
 90
        2
 70
     0
 10
173.007875
 20
101.431225
 40
0.198425
 41
0.198425
 10
174.0
 20
101.431225
 40
0.39685
 41
0.39685
  0
LWPOLYLINE
  5
5E4
330
1E
100
AcDbEntity
  8
Bars
100
AcDbPolyline
 90
        2
 70
     0
 10
173.007875
 20
101.828075
 40
0.198425
 41
0.198425
 10
174.0
 20
101.828075
 40
0.39685
 41
0.39685
  0
LWPOLYLINE
  5
5E5
330
1E
100
AcDbEntity
  8
Bars
100
AcDbPolyline
 90
        2
 70
     0
 10
172.75
 20
103.875
 40
0.25
 41
0.25
 10
174.0
 20
103.875
 40
0.5
 41
0.5
  0
LWPOLYLINE
  5
5E6
330
1E
100
AcDbEntity
  8
Bars
100
AcDbPolyline
 90
        2
 70
     0
 10
172.75
 20
104.375
 40
0.25
 41
0.25
 10
174.0
 20
104.375
 40
0.5
 41
0.5
  0
LWPOLYLINE
  5
5E7
330
1E
100
AcDbEntity
  8
Bars
100
AcDbPolyline
 90
        2
 70
     0
 10
172.75
 20
104.875
 40
0.25
 41
0.25
 10
174.0
 20
104.875
 40
0.5
 41
0.5
  0
LWPOLYLINE
  5
5E8
330
1E
100
AcDbEntity
  8
Bars
100
AcDbPolyline
 90
        2
 70
     0
 10
172.3295625
 20
103.375
 40
0.222725
 41
0.222725
 10
172.3295625
 20
102.261375
 40
0.4454500000000001
 41
0.4454500000000001
  0
LWPOLYLINE
  5
5E9
330
1E
100
AcDbEntity
  8
Bars
100
AcDbPolyline
 90
        2
 70
     0
 10
171.8841125
 20
103.375
 40
0.222725
 41
0.222725
 10
171.8841125
 20
102.261375
 40
0.4454500000000001
 41
0.4454500000000001
  0
CIRCLE
  5
5EA
330
1E
100
AcDbEntity
  8
Align
100
AcDbCircle
 10
171.3273
 20
101.9272875
 30
0.0
 40
0.044545
  0
LWPOLYLINE
  5
5EB
330
1E
100
AcDbEntity
  8
Bars
100
AcDbPolyline
 90
        2
 70
     0
 10
171.4386625
 20
103.375
 40
0.222725
 41
0.222725
 10
171.4386625
 20
102.261375
 40
0.4454500000000001
 41
0.4454500000000001
  0
CIRCLE
  5
5EC
330
1E
100
AcDbEntity
  8
Align
100
AcDbCircle
 10
171.3273
 20
103.375
 30
0.0
 40
0.044545
  0
CIRCLE
  5
5ED
330
1E
100
AcDbEntity
  8
Align
100
AcDbCircle
 10
171.6189
 20
101.9272875
 30
0.0
 40
0.039685
  0
LWPOLYLINE
  5
5EE
330
1E
100
AcDbEntity
  8
Bars
100
AcDbPolyline
 90
        2
 70
     0
 10
172.125
 20
105.0
 40
0.25
 41
0.25
 10
172.125
 20
103.75
 40
0.5
 41
0.5
  0
LWPOLYLINE
  5
5EF
330
1E
100
AcDbEntity
  8
Bars
100
AcDbPolyline
 90
        2
 70
     0
 10
171.625
 20
105.0
 40
0.25
 41
0.25
 10
171.625
 20
103.75
 40
0.5
 41
0.5
  0
CIRCLE
  5
5F0
330
1E
100
AcDbEntity
  8
Align
100
AcDbCircle
 10
171.0
 20
103.375
 30
0.0
 40
0.05
  0
LWPOLYLINE
  5
5F1
330
1E
100
AcDbEntity
  8
Bars
100
AcDbPolyline
 90
        2
 70
     0
 10
171.125
 20
105.0
 40
0.25
 41
0.25
 10
171.125
 20
103.75
 40
0.5
 41
0.5
  0
MTEXT
  5
5F2
330
1E
100
AcDbEntity
  8
Bars
100
AcDbMText
 10
174.44545
 20
102.261375
 30
0.0
 40
1.113625
 41
0.841
 71
     7
 72
     5
  1
{\fArial Narrow|b0|i0|c0|p34;2}
  7
ROMANT
 73
     1
 44
1.0
1001
ACAD
1000
MTEXTBEGIN
1070
    73
1070
     1
1070
    44
1040
1.0
1070
    74
1070
     0
1000
MTEXTEND
  0
CIRCLE
  5
5F3
330
1E
100
AcDbEntity
  8
Align
100
AcDbCircle
 10
174.0
 20
101.9272875
 30
0.0
 40
0.044545
  0
CIRCLE
  5
5F4
330
1E
100
AcDbEntity
  8
Align
100
AcDbCircle
 10
174.0
 20
102.261375
 30
0.0
 40
0.044545
  0
CIRCLE
  5
5F5
330
1E
100
AcDbEntity
  8
Align
100
AcDbCircle
 10
174.44545
 20
102.261375
 30
0.0
 40
0.044545
  0
CIRCLE
  5
5F6
330
1E
100
AcDbEntity
  8
Align
100
AcDbCircle
 10
174.0
 20
103.375
 30
0.0
 40
0.044545
  0
CIRCLE
  5
5F7
330
1E
100
AcDbEntity
  8
Align
100
AcDbCircle
 10
174.0
 20
101.9272875
 30
0.0
 40
0.039685
  0
CIRCLE
  5
5F8
330
1E
100
AcDbEntity
  8
Align
100
AcDbCircle
 10
174.0
 20
103.375
 30
0.0
 40
0.05
  0
CIRCLE
  5
5F9
330
1E
100
AcDbEntity
  8
Align
100
AcDbCircle
 10
174.0
 20
103.75
 30
0.0
 40
0.05
  0
CIRCLE
  5
5FA
330
1E
100
AcDbEntity
  8
Align
100
AcDbCircle
 10
174.5
 20
103.75
 30
0.0
 40
0.05
  0
MTEXT
  5
5FB
330
1E
100
AcDbEntity
  8
Bars
100
AcDbMText
 10
164.6727
 20
105.8909
 30
0.0
 40
2.22725
 41
2.004999999999999
 71
     8
 72
     5
  1
{\fArial Narrow|b0|i0|c0|p34;0}
  7
ROMANT
 73
     1
 44
1.0
1001
ACAD
1000
MTEXTBEGIN
1070
    73
1070
     1
1070
    44
1040
1.0
1070
    74
1070
     0
1000
MTEXTEND
  0
CIRCLE
  5
5FC
330
1E
100
AcDbEntity
  8
Align
100
AcDbCircle
 10
167.3454
 20
105.668175
 30
0.0
 40
0.08909
  0
CIRCLE
  5
5FD
330
1E
100
AcDbEntity
  8
Align
100
AcDbCircle
 10
166.4545
 20
105.668175
 30
0.0
 40
0.08909
  0
MTEXT
  5
5FE
330
1E
100
AcDbEntity
  8
Bars
100
AcDbMText
 10
172.5
 20
105.8908999999999
 30
0.0
 40
2.22725
 41
2.004524999999995
 71
     8
 72
     5
  1
{\fArial Narrow|b0|i0|c0|p34;1}
  7
ROMANT
 73
     1
 44
1.0
1001
ACAD
1000
MTEXTBEGIN
1070
    73
1070
     1
1070
    44
1040
1.0
1070
    74
1070
     0
1000
MTEXTEND
  0
CIRCLE
  5
5FF
330
1E
100
AcDbEntity
  8
Align
100
AcDbCircle
 10
169.33635
 20
100.8937875
 30
0.0
 40
0.0222725
  0
MTEXT
  5
600
330
1E
100
AcDbEntity
  8
Bars
100
AcDbMText
 10
167.777275
 20
100.336975
 30
0.0
 40
0.5568125000000001
 41
0.50125
 71
     9
 72
     5
  1
{\fArial Narrow|b0|i0|c0|p34;2}
  7
ROMANT
 73
     1
 44
1.0
1001
ACAD
1000
MTEXTBEGIN
1070
    73
1070
     1
1070
    44
1040
1.0
1070
    74
1070
     0
1000
MTEXTEND
  0
CIRCLE
  5
601
330
1E
100
AcDbEntity
  8
Align
100
AcDbCircle
 10
168.0
 20
100.8937875
 30
0.0
 40
0.0222725
  0
CIRCLE
  5
602
330
1E
100
AcDbEntity
  8
Align
100
AcDbCircle
 10
169.33635
 20
100.8937875
 30
0.0
 40
0.0222725
  0
CIRCLE
  5
603
330
1E
100
AcDbEntity
  8
Align
100
AcDbCircle
 10
170.25
 20
100.8937875
 30
0.0
 40
0.0125
  0
CIRCLE
  5
604
330
1E
100
AcDbEntity
  8
Align
100
AcDbCircle
 10
171.0
 20
100.8937875
 30
0.0
 40
0.0125
  0
MTEXT
  5
605
330
1E
100
AcDbEntity
  8
Bars
100
AcDbMText
 10
171.125
 20
100.5812875
 30
0.0
 40
0.3125
 41
0.236
 71
     7
 72
     5
  1
{\fArial Narrow|b0|i0|c0|p34;1}
  7
ROMANT
 73
     1
 44
1.0
1001
ACAD
1000
MTEXTBEGIN
1070
    73
1070
     1
1070
    44
1040
1.0
1070
    74
1070
     0
1000
MTEXTEND
  0
MTEXT
  5
606
330
1E
100
AcDbEntity
  8
Bars
100
AcDbMText
 10
167.84251
 20
98.556798125
 30
0.0
 40
0.393725
 41
0.3542499999999999
 71
     9
 72
     5
  1
{\fArial Narrow|b0|i0|c0|p34;5}
  7
ROMANT
 73
     1
 44
1.0
1001
ACAD
1000
MTEXTBEGIN
1070
    73
1070
     1
1070
    44
1040
1.0
1070
    74
1070
     0
1000
MTEXTEND
  0
MTEXT
  5
607
330
1E
100
AcDbEntity
  8
Bars
100
AcDbMText
 10
167.8232225
 20
99.08310624999998
 30
0.0
 40
0.44194375
 41
0.39775
 71
     9
 72
     5
  1
{\fArial Narrow|b0|i0|c0|p34;4}
  7
ROMANT
 73
     1
 44
1.0
1001
ACAD
1000
MTEXTBEGIN
1070
    73
1070
     1
1070
    44
1040
1.0
1070
    74
1070
     0
1000
MTEXTEND
  0
MTEXT
  5
608
330
1E
100
AcDbEntity
  8
Bars
100
AcDbMText
 10
167.801575
 20
99.67386875
 30
0.0
 40
0.4960625
 41
0.4465
 71
     9
 72
     5
  1
{\fArial Narrow|b0|i0|c0|p34;3}
  7
ROMANT
 73
     1
 44
1.0
1001
ACAD
1000
MTEXTBEGIN
1070
    73
1070
     1
1070
    44
1040
1.0
1070
    74
1070
     0
1000
MTEXTEND
  0
LWPOLYLINE
  5
609
330
1E
100
AcDbEntity
  8
Bars
100
AcDbPolyline
 90
        2
 70
     0
 10
168.9055675
 20
98.95052312499998
 40
0.078745
 41
0.078745
 10
168.9055675
 20
98.556798125
 40
0.15749
 41
0.15749
  0
LWPOLYLINE
  5
60A
330
1E
100
AcDbEntity
  8
Bars
100
AcDbPolyline
 90
        2
 70
     0
 10
168.5905875
 20
98.95052312499998
 40
0.078745
 41
0.078745
 10
168.5905875
 20
98.556798125
 40
0.15749
 41
0.15749
  0
LWPOLYLINE
  5
60B
330
1E
100
AcDbEntity
  8
Bars
100
AcDbPolyline
 90
        2
 70
     0
 10
168.393725
 20
98.91115062499999
 40
0.078745
 41
0.078745
 10
168.0
 20
98.91115062499999
 40
0.15749
 41
0.15749
  0
LWPOLYLINE
  5
60C
330
1E
100
AcDbEntity
  8
Bars
100
AcDbPolyline
 90
        2
 70
     0
 10
168.7480775
 20
98.95052312499998
 40
0.078745
 41
0.078745
 10
168.7480775
 20
98.556798125
 40
0.15749
 41
0.15749
  0
CIRCLE
  5
60D
330
1E
100
AcDbEntity
  8
Align
100
AcDbCircle
 10
168.0
 20
98.95052312499998
 30
0.0
 40
0.015749
  0
CIRCLE
  5
60E
330
1E
100
AcDbEntity
  8
Align
100
AcDbCircle
 10
168.94494
 20
98.95052312499998
 30
0.0
 40
0.015749
  0
CIRCLE
  5
60F
330
1E
100
AcDbEntity
  8
Align
100
AcDbCircle
 10
169.060665
 20
98.95052312499998
 30
0.0
 40
0.01767775
  0
CIRCLE
  5
610
330
1E
100
AcDbEntity
  8
Align
100
AcDbCircle
 10
168.0
 20
98.95052312499998
 30
0.0
 40
0.01767775
  0
CIRCLE
  5
611
330
1E
100
AcDbEntity
  8
Align
100
AcDbCircle
 10
168.94494
 20
98.438680625
 30
0.0
 40
0.015749
  0
CIRCLE
  5
612
330
1E
100
AcDbEntity
  8
Align
100
AcDbCircle
 10
168.94494
 20
98.556798125
 30
0.0
 40
0.015749
  0
LWPOLYLINE
  5
613
330
1E
100
AcDbEntity
  8
Bars
100
AcDbPolyline
 90
        2
 70
     0
 10
168.35076875
 20
98.40360374999999
 40
0.07015375
 41
0.07015375
 10
168.0
 20
98.40360374999999
 40
0.1403075
 41
0.1403075
  0
LWPOLYLINE
  5
614
330
1E
100
AcDbEntity
  8
Bars
100
AcDbPolyline
 90
        2
 70
     0
 10
168.35076875
 20
98.26329624999999
 40
0.07015375
 41
0.07015375
 10
168.0
 20
98.26329624999999
 40
0.1403075
 41
0.1403075
  0
LWPOLYLINE
  5
615
330
1E
100
AcDbEntity
  8
Bars
100
AcDbPolyline
 90
        2
 70
     0
 10
168.35076875
 20
98.12298874999999
 40
0.07015375
 41
0.07015375
 10
168.0
 20
98.12298874999999
 40
0.1403075
 41
0.1403075
  0
LWPOLYLINE
  5
616
330
1E
100
AcDbEntity
  8
Bars
100
AcDbPolyline
 90
        2
 70
     0
 10
168.393725
 20
98.75366062499999
 40
0.078745
 41
0.078745
 10
168.0
 20
98.75366062499999
 40
0.15749
 41
0.15749
  0
LWPOLYLINE
  5
617
330
1E
100
AcDbEntity
  8
Bars
100
AcDbPolyline
 90
        2
 70
     0
 10
168.393725
 20
98.59617062499999
 40
0.078745
 41
0.078745
 10
168.0
 20
98.59617062499999
 40
0.15749
 41
0.15749
  0
MTEXT
  5
618
330
1E
100
AcDbEntity
  8
Bars
100
AcDbMText
 10
167.8596925
 20
98.08791187499998
 30
0.0
 40
0.35076875
 41
0.31575
 71
     9
 72
     5
  1
{\fArial Narrow|b0|i0|c0|p34;6}
  7
ROMANT
 73
     1
 44
1.0
1001
ACAD
1000
MTEXTBEGIN
1070
    73
1070
     1
1070
    44
1040
1.0
1070
    74
1070
     0
1000
MTEXTEND
  0
CIRCLE
  5
619
330
1E
100
AcDbEntity
  8
Align
100
AcDbCircle
 10
168.0
 20
97.98268124999999
 30
0.0
 40
0.01403075
  0
CIRCLE
  5
61A
330
1E
100
AcDbEntity
  8
Align
100
AcDbCircle
 10
168.0
 20
98.08791187499998
 30
0.0
 40
0.01403075
  0
CIRCLE
  5
61B
330
1E
100
AcDbEntity
  8
Align
100
AcDbCircle
 10
167.8596925
 20
98.08791187499998
 30
0.0
 40
0.01403075
  0
CIRCLE
  5
61C
330
1E
100
AcDbEntity
  8
Align
100
AcDbCircle
 10
168.0
 20
98.438680625
 30
0.0
 40
0.01403075
  0
CIRCLE
  5
61D
330
1E
100
AcDbEntity
  8
Align
100
AcDbCircle
 10
168.0
 20
98.438680625
 30
0.0
 40
0.015749
  0
CIRCLE
  5
61E
330
1E
100
AcDbEntity
  8
Align
100
AcDbCircle
 10
168.0
 20
98.556798125
 30
0.0
 40
0.015749
  0
CIRCLE
  5
61F
330
1E
100
AcDbEntity
  8
Align
100
AcDbCircle
 10
167.84251
 20
98.556798125
 30
0.0
 40
0.015749
  0
CIRCLE
  5
620
330
1E
100
AcDbEntity
  8
Align
100
AcDbCircle
 10
168.841845
 20
97.98268124999999
 30
0.0
 40
0.01403075
  0
LWPOLYLINE
  5
621
330
1E
100
AcDbEntity
  8
Bars
100
AcDbPolyline
 90
        2
 70
     0
 10
168.806768125
 20
98.438680625
 40
0.07015375
 41
0.07015375
 10
168.806768125
 20
98.08791187499998
 40
0.1403075
 41
0.1403075
  0
CIRCLE
  5
622
330
1E
100
AcDbEntity
  8
Align
100
AcDbCircle
 10
168.841845
 20
98.08791187499998
 30
0.0
 40
0.01403075
  0
LWPOLYLINE
  5
623
330
1E
100
AcDbEntity
  8
Bars
100
AcDbPolyline
 90
        2
 70
     0
 10
168.526153125
 20
98.438680625
 40
0.07015375
 41
0.07015375
 10
168.526153125
 20
98.08791187499998
 40
0.1403075
 41
0.1403075
  0
LWPOLYLINE
  5
624
330
1E
100
AcDbEntity
  8
Bars
100
AcDbPolyline
 90
        2
 70
     0
 10
168.666460625
 20
98.438680625
 40
0.07015375
 41
0.07015375
 10
168.666460625
 20
98.08791187499998
 40
0.1403075
 41
0.1403075
  0
CIRCLE
  5
625
330
1E
100
AcDbEntity
  8
Align
100
AcDbCircle
 10
168.841845
 20
98.438680625
 30
0.0
 40
0.01403075
  0
CIRCLE
  5
626
330
1E
100
AcDbEntity
  8
Align
100
AcDbCircle
 10
169.5
 20
97.90041187499999
 30
0.0
 40
0.025
  0
LWPOLYLINE
  5
627
330
1E
100
AcDbEntity
  8
Bars
100
AcDbPolyline
 90
        2
 70
     0
 10
169.5625
 20
98.71291187499998
 40
0.125
 41
0.125
 10
169.5625
 20
98.08791187499998
 40
0.25
 41
0.25
  0
CIRCLE
  5
628
330
1E
100
AcDbEntity
  8
Align
100
AcDbCircle
 10
168.9821525
 20
98.08791187499998
 30
0.0
 40
0.01403075
  0
CIRCLE
  5
629
330
1E
100
AcDbEntity
  8
Align
100
AcDbCircle
 10
169.10243
 20
98.556798125
 30
0.0
 40
0.015749
  0
CIRCLE
  5
62A
330
1E
100
AcDbEntity
  8
Align
100
AcDbCircle
 10
169.5
 20
98.71291187499998
 30
0.0
 40
0.025
  0
LWPOLYLINE
  5
62B
330
1E
100
AcDbEntity
  8
Bars
100
AcDbPolyline
 90
        2
 70
     0
 10
170.0625
 20
98.71291187499998
 40
0.125
 41
0.125
 10
170.0625
 20
98.08791187499998
 40
0.25
 41
0.25
  0
LWPOLYLINE
  5
62C
330
1E
100
AcDbEntity
  8
Bars
100
AcDbPolyline
 90
        2
 70
     0
 10
169.8125
 20
98.71291187499998
 40
0.125
 41
0.125
 10
169.8125
 20
98.08791187499998
 40
0.25
 41
0.25
  0
LWPOLYLINE
  5
62D
330
1E
100
AcDbEntity
  8
Bars
100
AcDbPolyline
 90
        2
 70
     0
 10
168.94251875
 20
100.16993125
 40
0.0992125
 41
0.0992125
 10
168.94251875
 20
99.67386875
 40
0.198425
 41
0.198425
  0
LWPOLYLINE
  5
62E
330
1E
100
AcDbEntity
  8
Bars
100
AcDbPolyline
 90
        2
 70
     0
 10
168.74409375
 20
100.16993125
 40
0.0992125
 41
0.0992125
 10
168.74409375
 20
99.67386875
 40
0.198425
 41
0.198425
  0
LWPOLYLINE
  5
62F
330
1E
100
AcDbEntity
  8
Bars
100
AcDbPolyline
 90
        2
 70
     0
 10
168.4960625
 20
99.9219
 40
0.0992125
 41
0.0992125
 10
168.0
 20
99.9219
 40
0.198425
 41
0.198425
  0
LWPOLYLINE
  5
630
330
1E
100
AcDbEntity
  8
Bars
100
AcDbPolyline
 90
        2
 70
     0
 10
168.4960625
 20
99.72347499999999
 40
0.0992125
 41
0.0992125
 10
168.0
 20
99.72347499999999
 40
0.198425
 41
0.198425
  0
LWPOLYLINE
  5
631
330
1E
100
AcDbEntity
  8
Bars
100
AcDbPolyline
 90
        2
 70
     0
 10
168.44194375
 20
99.48085562499999
 40
0.08838875
 41
0.08838875
 10
168.0
 20
99.48085562499999
 40
0.1767775
 41
0.1767775
  0
LWPOLYLINE
  5
632
330
1E
100
AcDbEntity
  8
Bars
100
AcDbPolyline
 90
        2
 70
     0
 10
168.44194375
 20
99.304078125
 40
0.08838875
 41
0.08838875
 10
168.0
 20
99.304078125
 40
0.1767775
 41
0.1767775
  0
LWPOLYLINE
  5
633
330
1E
100
AcDbEntity
  8
Bars
100
AcDbPolyline
 90
        2
 70
     0
 10
168.44194375
 20
99.12730062499999
 40
0.08838875
 41
0.08838875
 10
168.0
 20
99.12730062499999
 40
0.1767775
 41
0.1767775
  0
CIRCLE
  5
634
330
1E
100
AcDbEntity
  8
Align
100
AcDbCircle
 10
168.0
 20
99.52505
 30
0.0
 40
0.0198425
  0
CIRCLE
  5
635
330
1E
100
AcDbEntity
  8
Align
100
AcDbCircle
 10
168.0
 20
99.67386875
 30
0.0
 40
0.0198425
  0
CIRCLE
  5
636
330
1E
100
AcDbEntity
  8
Align
100
AcDbCircle
 10
167.801575
 20
99.67386875
 30
0.0
 40
0.0198425
  0
CIRCLE
  5
637
330
1E
100
AcDbEntity
  8
Align
100
AcDbCircle
 10
168.0
 20
99.08310624999998
 30
0.0
 40
0.01767775
  0
CIRCLE
  5
638
330
1E
100
AcDbEntity
  8
Align
100
AcDbCircle
 10
167.8232225
 20
99.08310624999998
 30
0.0
 40
0.01767775
  0
CIRCLE
  5
639
330
1E
100
AcDbEntity
  8
Align
100
AcDbCircle
 10
168.0
 20
99.52505
 30
0.0
 40
0.01767775
  0
LWPOLYLINE
  5
63A
330
1E
100
AcDbEntity
  8
Bars
100
AcDbPolyline
 90
        2
 70
     0
 10
168.6629156249999
 20
99.52505
 40
0.08838875
 41
0.08838875
 10
168.6629156249999
 20
99.08310624999998
 40
0.1767775
 41
0.1767775
  0
LWPOLYLINE
  5
63B
330
1E
100
AcDbEntity
  8
Bars
100
AcDbPolyline
 90
        2
 70
     0
 10
168.839693125
 20
99.52505
 40
0.08838875
 41
0.08838875
 10
168.839693125
 20
99.08310624999998
 40
0.1767775
 41
0.1767775
  0
LWPOLYLINE
  5
63C
330
1E
100
AcDbEntity
  8
Bars
100
AcDbPolyline
 90
        2
 70
     0
 10
168.5568125
 20
100.83810625
 40
0.1113625
 41
0.1113625
 10
168.0
 20
100.83810625
 40
0.222725
 41
0.222725
  0
LWPOLYLINE
  5
63D
330
1E
100
AcDbEntity
  8
Bars
100
AcDbPolyline
 90
        2
 70
     0
 10
168.5568125
 20
100.61538125
 40
0.1113625
 41
0.1113625
 10
168.0
 20
100.61538125
 40
0.222725
 41
0.222725
  0
LWPOLYLINE
  5
63E
330
1E
100
AcDbEntity
  8
Bars
100
AcDbPolyline
 90
        2
 70
     0
 10
168.5568125
 20
100.39265625
 40
0.1113625
 41
0.1113625
 10
168.0
 20
100.39265625
 40
0.222725
 41
0.222725
  0
LWPOLYLINE
  5
63F
330
1E
100
AcDbEntity
  8
Bars
100
AcDbPolyline
 90
        2
 70
     0
 10
168.4960625
 20
100.120325
 40
0.0992125
 41
0.0992125
 10
168.0
 20
100.120325
 40
0.198425
 41
0.198425
  0
CIRCLE
  5
640
330
1E
100
AcDbEntity
  8
Align
100
AcDbCircle
 10
168.0
 20
100.16993125
 30
0.0
 40
0.0222725
  0
CIRCLE
  5
641
330
1E
100
AcDbEntity
  8
Align
100
AcDbCircle
 10
168.0
 20
100.336975
 30
0.0
 40
0.0222725
  0
CIRCLE
  5
642
330
1E
100
AcDbEntity
  8
Align
100
AcDbCircle
 10
167.777275
 20
100.336975
 30
0.0
 40
0.0222725
  0
CIRCLE
  5
643
330
1E
100
AcDbEntity
  8
Align
100
AcDbCircle
 10
168.0
 20
100.16993125
 30
0.0
 40
0.0198425
  0
LWPOLYLINE
  5
644
330
1E
100
AcDbEntity
  8
Bars
100
AcDbPolyline
 90
        2
 70
     0
 10
168.83521875
 20
100.8937875
 40
0.1113625
 41
0.1113625
 10
168.83521875
 20
100.336975
 40
0.222725
 41
0.222725
  0
LWPOLYLINE
  5
645
330
1E
100
AcDbEntity
  8
Bars
100
AcDbPolyline
 90
        2
 70
     0
 10
169.14094375
 20
100.16993125
 40
0.0992125
 41
0.0992125
 10
169.14094375
 20
99.67386875
 40
0.198425
 41
0.198425
  0
CIRCLE
  5
646
330
1E
100
AcDbEntity
  8
Align
100
AcDbCircle
 10
169.388975
 20
99.67386875
 30
0.0
 40
0.0198425
  0
CIRCLE
  5
647
330
1E
100
AcDbEntity
  8
Align
100
AcDbCircle
 10
169.19055
 20
99.52505
 30
0.0
 40
0.0198425
  0
CIRCLE
  5
648
330
1E
100
AcDbEntity
  8
Align
100
AcDbCircle
 10
169.19055
 20
99.67386875
 30
0.0
 40
0.0198425
  0
CIRCLE
  5
649
330
1E
100
AcDbEntity
  8
Align
100
AcDbCircle
 10
169.2374425
 20
99.08310624999998
 30
0.0
 40
0.01767775
  0
LWPOLYLINE
  5
64A
330
1E
100
AcDbEntity
  8
Bars
100
AcDbPolyline
 90
        2
 70
     0
 10
169.016470625
 20
99.52505
 40
0.08838875
 41
0.08838875
 10
169.016470625
 20
99.08310624999998
 40
0.1767775
 41
0.1767775
  0
CIRCLE
  5
64B
330
1E
100
AcDbEntity
  8
Align
100
AcDbCircle
 10
169.060665
 20
99.08310624999998
 30
0.0
 40
0.01767775
  0
CIRCLE
  5
64C
330
1E
100
AcDbEntity
  8
Align
100
AcDbCircle
 10
169.060665
 20
99.52505
 30
0.0
 40
0.01767775
  0
CIRCLE
  5
64D
330
1E
100
AcDbEntity
  8
Align
100
AcDbCircle
 10
170.0
 20
99.52505
 30
0.0
 40
0.0968855937369497
  0
CIRCLE
  5
64E
330
1E
100
AcDbEntity
  8
Align
100
AcDbCircle
 10
169.559075
 20
100.336975
 30
0.0
 40
0.0222725
  0
LWPOLYLINE
  5
64F
330
1E
100
AcDbEntity
  8
Bars
100
AcDbPolyline
 90
        4
 70
     1
 43
0.0
 10
170.1158875
 20
100.8937875
 10
169.559075
 20
100.8937875
 10
169.559075
 20
100.336975
 10
170.1158875
 20
100.336975
  0
LWPOLYLINE
  5
650
330
1E
100
AcDbEntity
  8
Bars
100
AcDbPolyline
 90
        2
 70
     0
 43
0.5568125000000066
 10
169.83748125
 20
100.8937875
 10
169.83748125
 20
100.336975
  0
CIRCLE
  5
651
330
1E
100
AcDbEntity
  8
Align
100
AcDbCircle
 10
169.33635
 20
100.16993125
 30
0.0
 40
0.0222725
  0
LWPOLYLINE
  5
652
330
1E
100
AcDbEntity
  8
Bars
100
AcDbPolyline
 90
        2
 70
     0
 10
169.28066875
 20
100.8937875
 40
0.1113625
 41
0.1113625
 10
169.28066875
 20
100.336975
 40
0.222725
 41
0.222725
  0
CIRCLE
  5
653
330
1E
100
AcDbEntity
  8
Align
100
AcDbCircle
 10
169.33635
 20
100.336975
 30
0.0
 40
0.0222725
  0
LWPOLYLINE
  5
654
330
1E
100
AcDbEntity
  8
Bars
100
AcDbPolyline
 90
        2
 70
     0
 10
169.05794375
 20
100.8937875
 40
0.1113625
 41
0.1113625
 10
169.05794375
 20
100.336975
 40
0.222725
 41
0.222725
  0
CIRCLE
  5
655
330
1E
100
AcDbEntity
  8
Align
100
AcDbCircle
 10
169.19055
 20
100.16993125
 30
0.0
 40
0.0198425
  0
MTEXT
  5
656
330
1E
100
AcDbEntity
  8
Bars
100
AcDbMText
 10
171.25
 20
98.08791187499998
 30
0.0
 40
0.625
 41
0.4720000000000001
 71
     7
 72
     5
  1
{\fArial Narrow|b0|i0|c0|p34;1}
  7
ROMANT
 73
     1
 44
1.0
1001
ACAD
1000
MTEXTBEGIN
1070
    73
1070
     1
1070
    44
1040
1.0
1070
    74
1070
     0
1000
MTEXTEND
  0
CIRCLE
  5
657
330
1E
100
AcDbEntity
  8
Align
100
AcDbCircle
 10
171.0
 20
97.90041187499999
 30
0.0
 40
0.025
  0
LWPOLYLINE
  5
658
330
1E
100
AcDbEntity
  8
Bars
100
AcDbPolyline
 90
        2
 70
     0
 10
170.375
 20
98.150411875
 40
0.125
 41
0.125
 10
171.0
 20
98.150411875
 40
0.25
 41
0.25
  0
LWPOLYLINE
  5
659
330
1E
100
AcDbEntity
  8
Bars
100
AcDbPolyline
 90
        2
 70
     0
 10
170.375
 20
98.40041187499998
 40
0.125
 41
0.125
 10
171.0
 20
98.40041187499998
 40
0.25
 41
0.25
  0
LWPOLYLINE
  5
65A
330
1E
100
AcDbEntity
  8
Bars
100
AcDbPolyline
 90
        2
 70
     0
 10
170.375
 20
98.65041187499999
 40
0.125
 41
0.125
 10
171.0
 20
98.65041187499999
 40
0.25
 41
0.25
  0
CIRCLE
  5
65B
330
1E
100
AcDbEntity
  8
Align
100
AcDbCircle
 10
171.0
 20
98.08791187499998
 30
0.0
 40
0.025
  0
CIRCLE
  5
65C
330
1E
100
AcDbEntity
  8
Align
100
AcDbCircle
 10
171.25
 20
98.08791187499998
 30
0.0
 40
0.025
  0
CIRCLE
  5
65D
330
1E
100
AcDbEntity
  8
Align
100
AcDbCircle
 10
171.0
 20
98.71291187499998
 30
0.0
 40
0.025
  0
MTEXT
  5
65E
330
1E
100
AcDbEntity
  8
Bars
100
AcDbMText
 10
171.0992125
 20
99.87757812499999
 30
0.0
 40
0.24803125
 41
0.18725
 71
     7
 72
     5
  1
{\fArial Narrow|b0|i0|c0|p34;3}
  7
ROMANT
 73
     1
 44
1.0
1001
ACAD
1000
MTEXTBEGIN
1070
    73
1070
     1
1070
    44
1040
1.0
1070
    74
1070
     0
1000
MTEXTEND
  0
LWPOLYLINE
  5
65F
330
1E
100
AcDbEntity
  8
Bars
100
AcDbPolyline
 90
        2
 70
     0
 10
170.627953125
 20
100.125609375
 40
0.04960625
 41
0.04960625
 10
170.627953125
 20
99.87757812499999
 40
0.0992125
 41
0.0992125
  0
LWPOLYLINE
  5
660
330
1E
100
AcDbEntity
  8
Bars
100
AcDbPolyline
 90
        2
 70
     0
 10
170.528740625
 20
100.125609375
 40
0.04960625
 41
0.04960625
 10
170.528740625
 20
99.87757812499999
 40
0.0992125
 41
0.0992125
  0
LWPOLYLINE
  5
661
330
1E
100
AcDbEntity
  8
Bars
100
AcDbPolyline
 90
        2
 70
     0
 10
170.429528125
 20
100.125609375
 40
0.04960625
 41
0.04960625
 10
170.429528125
 20
99.87757812499999
 40
0.0992125
 41
0.0992125
  0
LWPOLYLINE
  5
662
330
1E
100
AcDbEntity
  8
Bars
100
AcDbPolyline
 90
        2
 70
     0
 10
170.75196875
 20
99.90238124999999
 40
0.04960625
 41
0.04960625
 10
171.0
 20
99.90238124999999
 40
0.0992125
 41
0.0992125
  0
LWPOLYLINE
  5
663
330
1E
100
AcDbEntity
  8
Bars
100
AcDbPolyline
 90
        2
 70
     0
 10
170.824615625
 20
99.102138125
 40
0.035076875
 41
0.035076875
 10
171.0
 20
99.102138125
 40
0.07015375
 41
0.07015375
  0
LWPOLYLINE
  5
664
330
1E
100
AcDbEntity
  8
Bars
100
AcDbPolyline
 90
        2
 70
     0
 10
170.824615625
 20
99.172291875
 40
0.035076875
 41
0.035076875
 10
171.0
 20
99.172291875
 40
0.07015375
 41
0.07015375
  0
LWPOLYLINE
  5
665
330
1E
100
AcDbEntity
  8
Bars
100
AcDbPolyline
 90
        2
 70
     0
 10
170.824615625
 20
99.242445625
 40
0.035076875
 41
0.035076875
 10
171.0
 20
99.242445625
 40
0.07015375
 41
0.07015375
  0
LWPOLYLINE
  5
666
330
1E
100
AcDbEntity
  8
Bars
100
AcDbPolyline
 90
        2
 70
     0
 10
170.8031375
 20
99.3387290625
 40
0.0393725
 41
0.0393725
 10
171.0
 20
99.3387290625
 40
0.078745
 41
0.078745
  0
LWPOLYLINE
  5
667
330
1E
100
AcDbEntity
  8
Bars
100
AcDbPolyline
 90
        2
 70
     0
 10
170.8031375
 20
99.4174740625
 40
0.0393725
 41
0.0393725
 10
171.0
 20
99.4174740625
 40
0.078745
 41
0.078745
  0
LWPOLYLINE
  5
668
330
1E
100
AcDbEntity
  8
Bars
100
AcDbPolyline
 90
        2
 70
     0
 10
170.8031375
 20
99.49621906249999
 40
0.0393725
 41
0.0393725
 10
171.0
 20
99.49621906249999
 40
0.078745
 41
0.078745
  0
LWPOLYLINE
  5
669
330
1E
100
AcDbEntity
  8
Bars
100
AcDbPolyline
 90
        2
 70
     0
 10
170.779028125
 20
99.6042940625
 40
0.044194375
 41
0.044194375
 10
171.0
 20
99.6042940625
 40
0.08838875
 41
0.08838875
  0
LWPOLYLINE
  5
66A
330
1E
100
AcDbEntity
  8
Bars
100
AcDbPolyline
 90
        2
 70
     0
 10
170.779028125
 20
99.6926828125
 40
0.044194375
 41
0.044194375
 10
171.0
 20
99.6926828125
 40
0.08838875
 41
0.08838875
  0
LWPOLYLINE
  5
66B
330
1E
100
AcDbEntity
  8
Bars
100
AcDbPolyline
 90
        2
 70
     0
 10
170.779028125
 20
99.78107156249999
 40
0.044194375
 41
0.044194375
 10
171.0
 20
99.78107156249999
 40
0.08838875
 41
0.08838875
  0
LWPOLYLINE
  5
66C
330
1E
100
AcDbEntity
  8
Bars
100
AcDbPolyline
 90
        2
 70
     0
 10
170.7369234375
 20
99.2599840625
 40
0.035076875
 41
0.035076875
 10
170.7369234375
 20
99.08459968750001
 40
0.07015375
 41
0.07015375
  0
LWPOLYLINE
  5
66D
330
1E
100
AcDbEntity
  8
Bars
100
AcDbPolyline
 90
        2
 70
     0
 10
170.6667696875
 20
99.2599840625
 40
0.035076875
 41
0.035076875
 10
170.6667696875
 20
99.08459968750001
 40
0.07015375
 41
0.07015375
  0
CIRCLE
  5
66E
330
1E
100
AcDbEntity
  8
Align
100
AcDbCircle
 10
170.5790775
 20
99.031984375
 30
0.0
 40
0.007015375
  0
LWPOLYLINE
  5
66F
330
1E
100
AcDbEntity
  8
Bars
100
AcDbPolyline
 90
        2
 70
     0
 10
170.5966159375
 20
99.2599840625
 40
0.035076875
 41
0.035076875
 10
170.5966159375
 20
99.08459968750001
 40
0.07015375
 41
0.07015375
  0
CIRCLE
  5
670
330
1E
100
AcDbEntity
  8
Align
100
AcDbCircle
 10
170.5790775
 20
99.2599840625
 30
0.0
 40
0.007015375
  0
LWPOLYLINE
  5
671
330
1E
100
AcDbEntity
  8
Bars
100
AcDbPolyline
 90
        2
 70
     0
 10
170.70470625
 20
99.51590531249999
 40
0.0393725
 41
0.0393725
 10
170.70470625
 20
99.31904281249998
 40
0.078745
 41
0.078745
  0
LWPOLYLINE
  5
672
330
1E
100
AcDbEntity
  8
Bars
100
AcDbPolyline
 90
        2
 70
     0
 10
170.62596125
 20
99.51590531249999
 40
0.0393725
 41
0.0393725
 10
170.62596125
 20
99.31904281249998
 40
0.078745
 41
0.078745
  0
CIRCLE
  5
673
330
1E
100
AcDbEntity
  8
Align
100
AcDbCircle
 10
170.52753
 20
99.2599840625
 30
0.0
 40
0.0078745
  0
LWPOLYLINE
  5
674
330
1E
100
AcDbEntity
  8
Bars
100
AcDbPolyline
 90
        2
 70
     0
 10
170.54721625
 20
99.51590531249999
 40
0.0393725
 41
0.0393725
 10
170.54721625
 20
99.31904281249998
 40
0.078745
 41
0.078745
  0
CIRCLE
  5
675
330
1E
100
AcDbEntity
  8
Align
100
AcDbCircle
 10
170.52753
 20
99.51590531249999
 30
0.0
 40
0.0078745
  0
LWPOLYLINE
  5
676
330
1E
100
AcDbEntity
  8
Bars
100
AcDbPolyline
 90
        2
 70
     0
 10
170.6685421875
 20
99.80316874999999
 40
0.044194375
 41
0.044194375
 10
170.6685421875
 20
99.58219687499999
 40
0.08838875
 41
0.08838875
  0
LWPOLYLINE
  5
677
330
1E
100
AcDbEntity
  8
Bars
100
AcDbPolyline
 90
        2
 70
     0
 10
170.5801534375
 20
99.80316874999999
 40
0.044194375
 41
0.044194375
 10
170.5801534375
 20
99.58219687499999
 40
0.08838875
 41
0.08838875
  0
CIRCLE
  5
678
330
1E
100
AcDbEntity
  8
Align
100
AcDbCircle
 10
170.4696675
 20
99.51590531249999
 30
0.0
 40
0.008838875
  0
LWPOLYLINE
  5
679
330
1E
100
AcDbEntity
  8
Bars
100
AcDbPolyline
 90
        2
 70
     0
 10
170.4917646875
 20
99.80316874999999
 40
0.044194375
 41
0.044194375
 10
170.4917646875
 20
99.58219687499999
 40
0.08838875
 41
0.08838875
  0
CIRCLE
  5
67A
330
1E
100
AcDbEntity
  8
Align
100
AcDbCircle
 10
170.4696675
 20
99.80316874999999
 30
0.0
 40
0.008838875
  0
CIRCLE
  5
67B
330
1E
100
AcDbEntity
  8
Align
100
AcDbCircle
 10
170.404725
 20
99.80316874999999
 30
0.0
 40
0.00992125
  0
MTEXT
  5
67C
330
1E
100
AcDbEntity
  8
Bars
100
AcDbMText
 10
171.07015375
 20
99.08459968750001
 30
0.0
 40
0.175384375
 41
0.1325
 71
     7
 72
     5
  1
{\fArial Narrow|b0|i0|c0|p34;6}
  7
ROMANT
 73
     1
 44
1.0
1001
ACAD
1000
MTEXTBEGIN
1070
    73
1070
     1
1070
    44
1040
1.0
1070
    74
1070
     0
1000
MTEXTEND
  0
MTEXT
  5
67D
330
1E
100
AcDbEntity
  8
Bars
100
AcDbMText
 10
171.078745
 20
99.31904281249998
 30
0.0
 40
0.1968625
 41
0.14875
 71
     7
 72
     5
  1
{\fArial Narrow|b0|i0|c0|p34;5}
  7
ROMANT
 73
     1
 44
1.0
1001
ACAD
1000
MTEXTBEGIN
1070
    73
1070
     1
1070
    44
1040
1.0
1070
    74
1070
     0
1000
MTEXTEND
  0
MTEXT
  5
67E
330
1E
100
AcDbEntity
  8
Bars
100
AcDbMText
 10
171.08838875
 20
99.58219687499999
 30
0.0
 40
0.220971875
 41
0.167
 71
     7
 72
     5
  1
{\fArial Narrow|b0|i0|c0|p34;4}
  7
ROMANT
 73
     1
 44
1.0
1001
ACAD
1000
MTEXTBEGIN
1070
    73
1070
     1
1070
    44
1040
1.0
1070
    74
1070
     0
1000
MTEXTEND
  0
CIRCLE
  5
67F
330
1E
100
AcDbEntity
  8
Align
100
AcDbCircle
 10
171.0
 20
99.031984375
 30
0.0
 40
0.007015375
  0
CIRCLE
  5
680
330
1E
100
AcDbEntity
  8
Align
100
AcDbCircle
 10
171.0
 20
99.08459968750001
 30
0.0
 40
0.007015375
  0
CIRCLE
  5
681
330
1E
100
AcDbEntity
  8
Align
100
AcDbCircle
 10
171.07015375
 20
99.08459968750001
 30
0.0
 40
0.007015375
  0
CIRCLE
  5
682
330
1E
100
AcDbEntity
  8
Align
100
AcDbCircle
 10
171.0
 20
99.2599840625
 30
0.0
 40
0.007015375
  0
CIRCLE
  5
683
330
1E
100
AcDbEntity
  8
Align
100
AcDbCircle
 10
171.0
 20
99.2599840625
 30
0.0
 40
0.0078745
  0
CIRCLE
  5
684
330
1E
100
AcDbEntity
  8
Align
100
AcDbCircle
 10
171.0
 20
99.31904281249998
 30
0.0
 40
0.0078745
  0
CIRCLE
  5
685
330
1E
100
AcDbEntity
  8
Align
100
AcDbCircle
 10
171.078745
 20
99.31904281249998
 30
0.0
 40
0.0078745
  0
CIRCLE
  5
686
330
1E
100
AcDbEntity
  8
Align
100
AcDbCircle
 10
171.0
 20
99.51590531249999
 30
0.0
 40
0.0078745
  0
CIRCLE
  5
687
330
1E
100
AcDbEntity
  8
Align
100
AcDbCircle
 10
171.0
 20
99.51590531249999
 30
0.0
 40
0.008838875
  0
CIRCLE
  5
688
330
1E
100
AcDbEntity
  8
Align
100
AcDbCircle
 10
171.0
 20
99.58219687499999
 30
0.0
 40
0.008838875
  0
CIRCLE
  5
689
330
1E
100
AcDbEntity
  8
Align
100
AcDbCircle
 10
171.08838875
 20
99.58219687499999
 30
0.0
 40
0.008838875
  0
CIRCLE
  5
68A
330
1E
100
AcDbEntity
  8
Align
100
AcDbCircle
 10
171.0
 20
99.80316874999999
 30
0.0
 40
0.008838875
  0
CIRCLE
  5
68B
330
1E
100
AcDbEntity
  8
Align
100
AcDbCircle
 10
171.0
 20
99.80316874999999
 30
0.0
 40
0.00992125
  0
CIRCLE
  5
68C
330
1E
100
AcDbEntity
  8
Align
100
AcDbCircle
 10
171.0
 20
99.87757812499999
 30
0.0
 40
0.00992125
  0
CIRCLE
  5
68D
330
1E
100
AcDbEntity
  8
Align
100
AcDbCircle
 10
171.0992125
 20
99.87757812499999
 30
0.0
 40
0.00992125
  0
LWPOLYLINE
  5
68E
330
1E
100
AcDbEntity
  8
Bars
100
AcDbPolyline
 90
        2
 70
     0
 10
170.72159375
 20
100.236971875
 40
0.05568125
 41
0.05568125
 10
171.0
 20
100.236971875
 40
0.1113625
 41
0.1113625
  0
LWPOLYLINE
  5
68F
330
1E
100
AcDbEntity
  8
Bars
100
AcDbPolyline
 90
        2
 70
     0
 10
170.72159375
 20
100.348334375
 40
0.05568125
 41
0.05568125
 10
171.0
 20
100.348334375
 40
0.1113625
 41
0.1113625
  0
LWPOLYLINE
  5
690
330
1E
100
AcDbEntity
  8
Bars
100
AcDbPolyline
 90
        2
 70
     0
 10
170.72159375
 20
100.459696875
 40
0.05568125
 41
0.05568125
 10
171.0
 20
100.459696875
 40
0.1113625
 41
0.1113625
  0
LWPOLYLINE
  5
691
330
1E
100
AcDbEntity
  8
Bars
100
AcDbPolyline
 90
        2
 70
     0
 10
170.75196875
 20
100.00159375
 40
0.04960625
 41
0.04960625
 10
171.0
 20
100.00159375
 40
0.0992125
 41
0.0992125
  0
LWPOLYLINE
  5
692
330
1E
100
AcDbEntity
  8
Bars
100
AcDbPolyline
 90
        2
 70
     0
 10
170.75196875
 20
100.10080625
 40
0.04960625
 41
0.04960625
 10
171.0
 20
100.10080625
 40
0.0992125
 41
0.0992125
  0
LWPOLYLINE
  5
693
330
1E
100
AcDbEntity
  8
Bars
100
AcDbPolyline
 90
        2
 70
     0
 10
170.6875
 20
100.6125375
 40
0.0625
 41
0.0625
 10
171.0
 20
100.6125375
 40
0.125
 41
0.125
  0
LWPOLYLINE
  5
694
330
1E
100
AcDbEntity
  8
Bars
100
AcDbPolyline
 90
        2
 70
     0
 10
170.6875
 20
100.7375375
 40
0.0625
 41
0.0625
 10
171.0
 20
100.7375375
 40
0.125
 41
0.125
  0
LWPOLYLINE
  5
695
330
1E
100
AcDbEntity
  8
Bars
100
AcDbPolyline
 90
        2
 70
     0
 10
170.6875
 20
100.8625375
 40
0.0625
 41
0.0625
 10
171.0
 20
100.8625375
 40
0.125
 41
0.125
  0
LWPOLYLINE
  5
696
330
1E
100
AcDbEntity
  8
Bars
100
AcDbPolyline
 90
        2
 70
     0
 10
170.582390625
 20
100.4875375
 40
0.05568125
 41
0.05568125
 10
170.582390625
 20
100.20913125
 40
0.1113625
 41
0.1113625
  0
LWPOLYLINE
  5
697
330
1E
100
AcDbEntity
  8
Bars
100
AcDbPolyline
 90
        2
 70
     0
 10
170.471028125
 20
100.4875375
 40
0.05568125
 41
0.05568125
 10
170.471028125
 20
100.20913125
 40
0.1113625
 41
0.1113625
  0
CIRCLE
  5
698
330
1E
100
AcDbEntity
  8
Align
100
AcDbCircle
 10
170.331825
 20
100.125609375
 30
0.0
 40
0.01113625
  0
LWPOLYLINE
  5
699
330
1E
100
AcDbEntity
  8
Bars
100
AcDbPolyline
 90
        2
 70
     0
 10
170.359665625
 20
100.4875375
 40
0.05568125
 41
0.05568125
 10
170.359665625
 20
100.20913125
 40
0.1113625
 41
0.1113625
  0
CIRCLE
  5
69A
330
1E
100
AcDbEntity
  8
Align
100
AcDbCircle
 10
170.331825
 20
100.4875375
 30
0.0
 40
0.01113625
  0
CIRCLE
  5
69B
330
1E
100
AcDbEntity
  8
Align
100
AcDbCircle
 10
170.404725
 20
100.125609375
 30
0.0
 40
0.00992125
  0
LWPOLYLINE
  5
69C
330
1E
100
AcDbEntity
  8
Bars
100
AcDbPolyline
 90
        2
 70
     0
 10
170.53125
 20
100.8937875
 40
0.0625
 41
0.0625
 10
170.53125
 20
100.5812875
 40
0.125
 41
0.125
  0
LWPOLYLINE
  5
69D
330
1E
100
AcDbEntity
  8
Bars
100
AcDbPolyline
 90
        2
 70
     0
 10
170.40625
 20
100.8937875
 40
0.0625
 41
0.0625
 10
170.40625
 20
100.5812875
 40
0.125
 41
0.125
  0
CIRCLE
  5
69E
330
1E
100
AcDbEntity
  8
Align
100
AcDbCircle
 10
170.25
 20
100.4875375
 30
0.0
 40
0.0125
  0
LWPOLYLINE
  5
69F
330
1E
100
AcDbEntity
  8
Bars
100
AcDbPolyline
 90
        2
 70
     0
 10
170.28125
 20
100.8937875
 40
0.0625
 41
0.0625
 10
170.28125
 20
100.5812875
 40
0.125
 41
0.125
  0
MTEXT
  5
6A0
330
1E
100
AcDbEntity
  8
Bars
100
AcDbMText
 10
171.1113625
 20
100.20913125
 30
0.0
 40
0.27840625
 41
0.21025
 71
     7
 72
     5
  1
{\fArial Narrow|b0|i0|c0|p34;2}
  7
ROMANT
 73
     1
 44
1.0
1001
ACAD
1000
MTEXTBEGIN
1070
    73
1070
     1
1070
    44
1040
1.0
1070
    74
1070
     0
1000
MTEXTEND
  0
CIRCLE
  5
6A1
330
1E
100
AcDbEntity
  8
Align
100
AcDbCircle
 10
171.0
 20
100.125609375
 30
0.0
 40
0.01113625
  0
CIRCLE
  5
6A2
330
1E
100
AcDbEntity
  8
Align
100
AcDbCircle
 10
171.0
 20
100.20913125
 30
0.0
 40
0.01113625
  0
CIRCLE
  5
6A3
330
1E
100
AcDbEntity
  8
Align
100
AcDbCircle
 10
171.1113625
 20
100.20913125
 30
0.0
 40
0.01113625
  0
CIRCLE
  5
6A4
330
1E
100
AcDbEntity
  8
Align
100
AcDbCircle
 10
171.0
 20
100.4875375
 30
0.0
 40
0.01113625
  0
CIRCLE
  5
6A5
330
1E
100
AcDbEntity
  8
Align
100
AcDbCircle
 10
171.0
 20
100.125609375
 30
0.0
 40
0.00992125
  0
CIRCLE
  5
6A6
330
1E
100
AcDbEntity
  8
Align
100
AcDbCircle
 10
171.0
 20
100.4875375
 30
0.0
 40
0.0125
  0
CIRCLE
  5
6A7
330
1E
100
AcDbEntity
  8
Align
100
AcDbCircle
 10
171.0
 20
100.5812875
 30
0.0
 40
0.0125
  0
CIRCLE
  5
6A8
330
1E
100
AcDbEntity
  8
Align
100
AcDbCircle
 10
171.125
 20
100.5812875
 30
0.0
 40
0.0125
  0
MTEXT
  5
6A9
330
1E
100
AcDbEntity
  8
Bars
100
AcDbMText
 10
168.668175
 20
101.1165125
 30
0.0
 40
0.5568125000000001
 41
0.501
 71
     8
 72
     5
  1
{\fArial Narrow|b0|i0|c0|p34;2}
  7
ROMANT
 73
     1
 44
1.0
1001
ACAD
1000
MTEXTBEGIN
1070
    73
1070
     1
1070
    44
1040
1.0
1070
    74
1070
     0
1000
MTEXTEND
  0
CIRCLE
  5
6AA
330
1E
100
AcDbEntity
  8
Align
100
AcDbCircle
 10
169.33635
 20
101.06083125
 30
0.0
 40
0.0222725
  0
CIRCLE
  5
6AB
330
1E
100
AcDbEntity
  8
Align
100
AcDbCircle
 10
169.113625
 20
101.06083125
 30
0.0
 40
0.0222725
  0
MTEXT
  5
6AC
330
1E
100
AcDbEntity
  8
Bars
100
AcDbMText
 10
170.625
 20
101.1165124999999
 30
0.0
 40
0.5568125000000001
 41
0.501
 71
     8
 72
     5
  1
{\fArial Narrow|b0|i0|c0|p34;3}
  7
ROMANT
 73
     1
 44
1.0
1001
ACAD
1000
MTEXTBEGIN
1070
    73
1070
     1
1070
    44
1040
1.0
1070
    74
1070
     0
1000
MTEXTEND
  0
MTEXT
  5
6B8
330
1E
100
AcDbEntity
  8
Bars
100
AcDbMText
 10
136.942290347215
 20
65.26819513930627
 30
0.0
 40
3.5
 41
50.426
 71
     1
 72
     5
  1
{\fArial Narrow|b0|i0|c0|p34;Bertho Boman: 16-July-2000}
  7
ROMANT
 73
     1
 44
1.0
1001
ACAD
1000
MTEXTBEGIN
1070
    73
1070
     1
1070
    44
1040
1.0
1070
    74
1070
     0
1000
MTEXTEND
  0
ENDSEC
  0
SECTION
  2
OBJECTS
  0
DICTIONARY
  5
C
330
0
100
AcDbDictionary
281
     1
  3
ACAD_COLOR
350
6BD
  3
ACAD_GROUP
350
D
  3
ACAD_LAYOUT
350
19
  3
ACAD_MATERIAL
350
6BC
  3
ACAD_MLINESTYLE
350
16
  3
ACAD_PLOTSETTINGS
350
18
  3
ACAD_PLOTSTYLENAME
350
E
  3
ACAD_TABLESTYLE
350
6BE
  3
ACDBHEADERROUNDTRIPXREC
350
6CB
  3
AcDbVariableDictionary
350
6C6
  0
DICTIONARY
  5
6BD
102
{ACAD_REACTORS
330
C
102
}
330
C
100
AcDbDictionary
281
     1
  0
DICTIONARY
  5
D
102
{ACAD_REACTORS
330
C
102
}
330
C
100
AcDbDictionary
281
     1
  0
DICTIONARY
  5
19
102
{ACAD_REACTORS
330
C
102
}
330
C
100
AcDbDictionary
281
     1
  3
Layout1
350
1D
  3
Model
350
21
  0
DICTIONARY
  5
6BC
102
{ACAD_REACTORS
330
C
102
}
330
C
100
AcDbDictionary
281
     1
  0
DICTIONARY
  5
16
102
{ACAD_REACTORS
330
C
102
}
330
C
100
AcDbDictionary
281
     1
  3
Standard
350
17
  0
DICTIONARY
  5
18
102
{ACAD_REACTORS
330
C
102
}
330
C
100
AcDbDictionary
281
     1
  0
ACDBDICTIONARYWDFLT
  5
E
102
{ACAD_REACTORS
330
C
102
}
330
C
100
AcDbDictionary
281
     1
  3
Normal
350
F
100
AcDbDictionaryWithDefault
340
F
  0
DICTIONARY
  5
6BE
102
{ACAD_REACTORS
330
C
102
}
330
C
100
AcDbDictionary
281
     1
  3
Standard
350
6BF
  0
DICTIONARY
  5
6CB
102
{ACAD_REACTORS
330
C
102
}
330
C
100
AcDbDictionary
281
     1
  0
DICTIONARY
  5
6C6
102
{ACAD_REACTORS
330
C
102
}
330
C
100
AcDbDictionary
281
     1
  3
CTABLESTYLE
350
6C7
  3
DIMASSOC
350
6C8
  3
PROJECTNAME
350
6C9
  0
LAYOUT
  5
1D
102
{ACAD_XDICTIONARY
360
6CC
102
}
102
{ACAD_REACTORS
330
19
102
}
330
19
100
AcDbPlotSettings
  1

  2
\\SERVER\HP LaserJet 4V/4MV PostScript
  4

  6

 40
0.0
 41
0.0
 42
0.0
 43
0.0
 44
0.0
 45
0.0
 46
0.0
 47
0.0
 48
0.0
 49
0.0
140
0.0
141
0.0
142
1.0
143
1.0
 70
   688
 72
     0
 73
     0
 74
     5
  7
Default R14 pen assignments.ctb
 75
    16
147
1.0
148
0.0
149
0.0
100
AcDbLayout
  1
Layout1
 70
     1
 71
     1
 10
0.0
 20
0.0
 11
12.0
 21
9.0
 12
0.0
 22
0.0
 32
0.0
 14
1.000000000000000E+20
 24
1.000000000000000E+20
 34
1.000000000000000E+20
 15
-1.000000000000000E+20
 25
-1.000000000000000E+20
 35
-1.000000000000000E+20
146
0.0
 13
0.0
 23
0.0
 33
0.0
 16
1.0
 26
0.0
 36
0.0
 17
0.0
 27
1.0
 37
0.0
 76
     0
330
1A
  0
LAYOUT
  5
21
102
{ACAD_XDICTIONARY
360
6CE
102
}
102
{ACAD_REACTORS
330
19
102
}
330
19
100
AcDbPlotSettings
  1

  2
\\SERVER\LaserJet 4MV
  4
User45
  6

 40
7.143749713897705
 41
6.720414161682128
 42
7.14373779296875
 43
5.027069091796875
 44
215.8999938964844
 45
279.3999938964844
 46
0.0
 47
0.0
 48
0.0
 49
0.0
140
0.0
141
0.0
142
1.0
143
1.0
 70
 11952
 72
     1
 73
     1
 74
     1
  7
Default R14 pen assignments.ctb
 75
    16
147
1.0
148
0.0163438553267952
149
6.054408701502552
100
AcDbLayout
  1
Model
 70
     1
 71
     0
 10
0.0
 20
0.0
 11
12.0
 21
9.0
 12
0.0
 22
0.0
 32
0.0
 14
0.0
 24
0.0
 34
0.0
 15
0.0
 25
0.0
 35
0.0
146
0.0
 13
0.0
 23
0.0
 33
0.0
 16
1.0
 26
0.0
 36
0.0
 17
0.0
 27
1.0
 37
0.0
 76
     0
330
1E
  0
MLINESTYLE
  5
17
102
{ACAD_REACTORS
330
16
102
}
330
16
100
AcDbMlineStyle
  2
STANDARD
 70
     0
  3

 62
   256
 51
90.0
 52
90.0
 71
     2
 49
0.5
 62
   256
  6
BYLAYER
 49
-0.5
 62
   256
  6
BYLAYER
  0
ACDBPLACEHOLDER
  5
F
102
{ACAD_REACTORS
330
E
102
}
330
E
  0
TABLESTYLE
  5
6BF
102
{ACAD_REACTORS
330
6BE
102
}
330
6BE
100
AcDbTableStyle
  3
Standard
 70
     0
 71
     0
 40
0.06
 41
0.06
280
     0
281
     0
  7
STANDARD
140
0.18
170
     2
 62
     0
 63
     7
283
     0
274
    -2
284
     1
 64
     0
275
    -2
285
     1
 65
     0
276
    -2
286
     1
 66
     0
277
    -2
287
     1
 67
     0
278
    -2
288
     1
 68
     0
279
    -2
289
     1
 69
     0
  7
STANDARD
140
0.25
170
     5
 62
     0
 63
     7
283
     0
274
    -2
284
     1
 64
     0
275
    -2
285
     1
 65
     0
276
    -2
286
     1
 66
     0
277
    -2
287
     1
 67
     0
278
    -2
288
     1
 68
     0
279
    -2
289
     1
 69
     0
  7
STANDARD
140
0.18
170
     5
 62
     0
 63
     7
283
     0
274
    -2
284
     1
 64
     0
275
    -2
285
     1
 65
     0
276
    -2
286
     1
 66
     0
277
    -2
287
     1
 67
     0
278
    -2
288
     1
 68
     0
279
    -2
289
     1
 69
     0
  0
DICTIONARYVAR
  5
6C7
102
{ACAD_REACTORS
330
6C6
102
}
330
6C6
100
DictionaryVariables
280
     0
  1
STANDARD
  0
DICTIONARYVAR
  5
6C8
102
{ACAD_REACTORS
330
6C6
102
}
330
6C6
100
DictionaryVariables
280
     0
  1
1
  0
DICTIONARYVAR
  5
6C9
102
{ACAD_REACTORS
330
6C6
102
}
330
6C6
100
DictionaryVariables
280
     0
  1

  0
DICTIONARY
  5
6CC
330
1D
100
AcDbDictionary
280
     1
281
     1
  3
ACAD_XREC_ROUNDTRIP
360
6CD
  0
DICTIONARY
  5
6CE
330
21
100
AcDbDictionary
280
     1
281
     1
  3
ACAD_XREC_ROUNDTRIP
360
6CF
  0
XRECORD
  5
6CD
102
{ACAD_REACTORS
330
6CC
102
}
330
6CC
100
AcDbXrecord
280
     1
102
SHADEPLOT
 70
     0
102
SHADEPLOTRESLEVEL
 70
     2
102
SHADEPLOTCUSTOMDPI
 70
   300
  0
XRECORD
  5
6CF
102
{ACAD_REACTORS
330
6CE
102
}
330
6CE
100
AcDbXrecord
280
     1
102
SHADEPLOT
 70
     0
102
SHADEPLOTRESLEVEL
 70
     2
102
SHADEPLOTCUSTOMDPI
 70
   300
  0
ENDSEC
  0
EOF
