  0
SECTION
  2
HEADER
  9
$ACADVER
  1
AC1015
  9
$ACADMAINTVER
 70
    20
  9
$DWGCODEPAGE
  3
ANSI_1252
  9
$INSBASE
 10
0.0
 20
0.0
 30
0.0
  9
$EXTMIN
 10
0.7275000000000001
 20
0.29
 30
0.0
  9
$EXTMAX
 10
8.2725
 20
2.872499999999999
 30
0.0
  9
$LIMMIN
 10
0.0
 20
0.0
  9
$LIMMAX
 10
0.0
 20
0.0
  9
$ORTHOMODE
 70
     0
  9
$REGENMODE
 70
     1
  9
$FILLMODE
 70
     1
  9
$QTEXTMODE
 70
     0
  9
$MIRRTEXT
 70
     1
  9
$LTSCALE
 40
1.0
  9
$ATTMODE
 70
     1
  9
$TEXTSIZE
 40
0.1
  9
$TRACEWID
 40
0.05
  9
$TEXTSTYLE
  7
STANDARD
  9
$CLAYER
  8
0
  9
$CELTYPE
  6
CONTINUOUS
  9
$CECOLOR
 62
   256
  9
$CELTSCALE
 40
1.0
  9
$DISPSILH
 70
     0
  9
$DIMSCALE
 40
1.0
  9
$DIMASZ
 40
0.18
  9
$DIMEXO
 40
0.0625
  9
$DIMDLI
 40
0.38
  9
$DIMRND
 40
0.0
  9
$DIMDLE
 40
0.0
  9
$DIMEXE
 40
0.18
  9
$DIMTP
 40
0.0
  9
$DIMTM
 40
0.0
  9
$DIMTXT
 40
0.18
  9
$DIMCEN
 40
0.09
  9
$DIMTSZ
 40
0.0
  9
$DIMTOL
 70
     0
  9
$DIMLIM
 70
     0
  9
$DIMTIH
 70
     1
  9
$DIMTOH
 70
     1
  9
$DIMSE1
 70
     0
  9
$DIMSE2
 70
     0
  9
$DIMTAD
 70
     0
  9
$DIMZIN
 70
     0
  9
$DIMBLK
  1

  9
$DIMASO
 70
     1
  9
$DIMSHO
 70
     1
  9
$DIMPOST
  1

  9
$DIMAPOST
  1

  9
$DIMALT
 70
     0
  9
$DIMALTD
 70
     2
  9
$DIMALTF
 40
25.4
  9
$DIMLFAC
 40
1.0
  9
$DIMTOFL
 70
     0
  9
$DIMTVP
 40
0.0
  9
$DIMTIX
 70
     0
  9
$DIMSOXD
 70
     0
  9
$DIMSAH
 70
     0
  9
$DIMBLK1
  1

  9
$DIMBLK2
  1

  9
$DIMSTYLE
  2
STANDARD
  9
$DIMCLRD
 70
     0
  9
$DIMCLRE
 70
     0
  9
$DIMCLRT
 70
     0
  9
$DIMTFAC
 40
1.0
  9
$DIMGAP
 40
0.09
  9
$DIMJUST
 70
     0
  9
$DIMSD1
 70
     0
  9
$DIMSD2
 70
     0
  9
$DIMTOLJ
 70
     1
  9
$DIMTZIN
 70
     0
  9
$DIMALTZ
 70
     0
  9
$DIMALTTZ
 70
     0
  9
$DIMUPT
 70
     0
  9
$DIMDEC
 70
     4
  9
$DIMTDEC
 70
     4
  9
$DIMALTU
 70
     2
  9
$DIMALTTD
 70
     2
  9
$DIMTXSTY
  7
STANDARD
  9
$DIMAUNIT
 70
     0
  9
$DIMADEC
 70
     0
  9
$DIMALTRND
 40
0.0
  9
$DIMAZIN
 70
     0
  9
$DIMDSEP
 70
    46
  9
$DIMATFIT
 70
     3
  9
$DIMFRAC
 70
     0
  9
$DIMLDRBLK
  1

  9
$DIMLUNIT
 70
     2
  9
$DIMLWD
 70
    -2
  9
$DIMLWE
 70
    -2
  9
$DIMTMOVE
 70
     0
  9
$LUNITS
 70
     2
  9
$LUPREC
 70
     4
  9
$SKETCHINC
 40
0.1
  9
$FILLETRAD
 40
0.0
  9
$AUNITS
 70
     0
  9
$AUPREC
 70
     0
  9
$MENU
  1
acad
  9
$ELEVATION
 40
0.0
  9
$PELEVATION
 40
0.0
  9
$THICKNESS
 40
0.0
  9
$LIMCHECK
 70
     0
  9
$CHAMFERA
 40
0.0
  9
$CHAMFERB
 40
0.0
  9
$CHAMFERC
 40
0.0
  9
$CHAMFERD
 40
0.0
  9
$SKPOLY
 70
     0
  9
$TDCREATE
 40
2305814.042176054
  9
$TDUCREATE
 40
2305814.208842720
  9
$TDUPDATE
 40
2455848.124434780
  9
$TDUUPDATE
 40
2455848.291101447
  9
$TDINDWG
 40
2.9342030787
  9
$TDUSRTIMER
 40
2.9342027778
  9
$USRTIMER
 70
     1
  9
$ANGBASE
 50
0.0
  9
$ANGDIR
 70
     0
  9
$PDMODE
 70
     0
  9
$PDSIZE
 40
0.0
  9
$PLINEWID
 40
0.05
  9
$SPLFRAME
 70
     0
  9
$SPLINETYPE
 70
     6
  9
$SPLINESEGS
 70
     8
  9
$HANDSEED
  5
179E
  9
$SURFTAB1
 70
     6
  9
$SURFTAB2
 70
     6
  9
$SURFTYPE
 70
     6
  9
$SURFU
 70
     6
  9
$SURFV
 70
     6
  9
$UCSBASE
  2

  9
$UCSNAME
  2

  9
$UCSORG
 10
0.0
 20
0.0
 30
0.0
  9
$UCSXDIR
 10
1.0
 20
0.0
 30
0.0
  9
$UCSYDIR
 10
0.0
 20
1.0
 30
0.0
  9
$UCSORTHOREF
  2

  9
$UCSORTHOVIEW
 70
     0
  9
$UCSORGTOP
 10
0.0
 20
0.0
 30
0.0
  9
$UCSORGBOTTOM
 10
0.0
 20
0.0
 30
0.0
  9
$UCSORGLEFT
 10
0.0
 20
0.0
 30
0.0
  9
$UCSORGRIGHT
 10
0.0
 20
0.0
 30
0.0
  9
$UCSORGFRONT
 10
0.0
 20
0.0
 30
0.0
  9
$UCSORGBACK
 10
0.0
 20
0.0
 30
0.0
  9
$PUCSBASE
  2

  9
$PUCSNAME
  2

  9
$PUCSORG
 10
0.0
 20
0.0
 30
0.0
  9
$PUCSXDIR
 10
1.0
 20
0.0
 30
0.0
  9
$PUCSYDIR
 10
0.0
 20
1.0
 30
0.0
  9
$PUCSORTHOREF
  2

  9
$PUCSORTHOVIEW
 70
     0
  9
$PUCSORGTOP
 10
0.0
 20
0.0
 30
0.0
  9
$PUCSORGBOTTOM
 10
0.0
 20
0.0
 30
0.0
  9
$PUCSORGLEFT
 10
0.0
 20
0.0
 30
0.0
  9
$PUCSORGRIGHT
 10
0.0
 20
0.0
 30
0.0
  9
$PUCSORGFRONT
 10
0.0
 20
0.0
 30
0.0
  9
$PUCSORGBACK
 10
0.0
 20
0.0
 30
0.0
  9
$USERI1
 70
     0
  9
$USERI2
 70
     0
  9
$USERI3
 70
     0
  9
$USERI4
 70
     0
  9
$USERI5
 70
     0
  9
$USERR1
 40
0.0
  9
$USERR2
 40
0.0
  9
$USERR3
 40
0.0
  9
$USERR4
 40
0.0
  9
$USERR5
 40
0.0
  9
$WORLDVIEW
 70
     1
  9
$SHADEDGE
 70
     3
  9
$SHADEDIF
 70
    70
  9
$TILEMODE
 70
     1
  9
$MAXACTVP
 70
    16
  9
$PINSBASE
 10
0.0
 20
0.0
 30
0.0
  9
$PLIMCHECK
 70
     0
  9
$PEXTMIN
 10
1.000000000000000E+20
 20
1.000000000000000E+20
 30
1.000000000000000E+20
  9
$PEXTMAX
 10
-1.000000000000000E+20
 20
-1.000000000000000E+20
 30
-1.000000000000000E+20
  9
$PLIMMIN
 10
0.0
 20
0.0
  9
$PLIMMAX
 10
12.0
 20
9.0
  9
$UNITMODE
 70
     0
  9
$VISRETAIN
 70
     0
  9
$PLINEGEN
 70
     1
  9
$PSLTSCALE
 70
     0
  9
$TREEDEPTH
 70
  3020
  9
$CMLSTYLE
  2
STANDARD
  9
$CMLJUST
 70
     0
  9
$CMLSCALE
 40
1.0
  9
$PROXYGRAPHICS
 70
     0
  9
$MEASUREMENT
 70
     0
  9
$CELWEIGHT
370
    -1
  9
$ENDCAPS
280
     0
  9
$JOINSTYLE
280
     0
  9
$LWDISPLAY
290
     0
  9
$INSUNITS
 70
     0
  9
$HYPERLINKBASE
  1

  9
$STYLESHEET
  1

  9
$XEDIT
290
     1
  9
$CEPSNTYPE
380
     0
  9
$PSTYLEMODE
290
     1
  9
$FINGERPRINTGUID
  2
{EBBEC8D2-9D7B-4E18-AF95-EDED58E81BA5}
  9
$VERSIONGUID
  2
{E56B8373-EDFC-4421-A8FF-61B04CB8A437}
  9
$EXTNAMES
290
     1
  9
$PSVPSCALE
 40
0.0
  9
$OLESTARTUP
290
     0
  0
ENDSEC
  0
SECTION
  2
CLASSES
  0
CLASS
  1
IMAGE
  2
AcDbRasterImage
  3
ISM
 90
    32895
280
     0
281
     1
  0
CLASS
  1
DICTIONARYVAR
  2
AcDbDictionaryVar
  3
ObjectDBX Classes
 90
        0
280
     0
281
     0
  0
CLASS
  1
RASTERVARIABLES
  2
AcDbRasterVariables
  3
ISM
 90
    32768
280
     0
281
     0
  0
CLASS
  1
IMAGEDEF
  2
AcDbRasterImageDef
  3
ISM
 90
    32768
280
     0
281
     0
  0
CLASS
  1
IMAGEDEF_REACTOR
  2
AcDbRasterImageDefReactor
  3
ISM
 90
    32769
280
     0
281
     0
  0
CLASS
  1
IDBUFFER
  2
AcDbIdBuffer
  3
ObjectDBX Classes
 90
    32768
280
     0
281
     0
  0
CLASS
  1
SPATIAL_FILTER
  2
AcDbSpatialFilter
  3
ObjectDBX Classes
 90
    32768
280
     0
281
     0
  0
CLASS
  1
SORTENTSTABLE
  2
AcDbSortentsTable
  3
ObjectDBX Classes
 90
        0
280
     0
281
     0
  0
CLASS
  1
LAYER_INDEX
  2
AcDbLayerIndex
  3
ObjectDBX Classes
 90
    32768
280
     0
281
     0
  0
CLASS
  1
SPATIAL_INDEX
  2
AcDbSpatialIndex
  3
ObjectDBX Classes
 90
    32768
280
     0
281
     0
  0
CLASS
  1
OBJECT_PTR
  2
CAseDLPNTableRecord
  3
ASE-LPNTableRecord
 90
    32769
280
     0
281
     0
  0
CLASS
  1
LAYOUT
  2
AcDbLayout
  3
ObjectDBX Classes
 90
        0
280
     0
281
     0
  0
CLASS
  1
PLOTSETTINGS
  2
AcDbPlotSettings
  3
ObjectDBX Classes
 90
    32768
280
     0
281
     0
  0
CLASS
  1
ACDBDICTIONARYWDFLT
  2
AcDbDictionaryWithDefault
  3
ObjectDBX Classes
 90
        0
280
     0
281
     0
  0
CLASS
  1
ACDBPLACEHOLDER
  2
AcDbPlaceHolder
  3
ObjectDBX Classes
 90
        0
280
     0
281
     0
  0
CLASS
  1
VBA_PROJECT
  2
AcDbVbaProject
  3
acad
 90
    32768
280
     0
281
     0
  0
CLASS
  1
WIPEOUT
  2
AcDbWipeout
  3
"WipeOut|Product Desc: Object Enabler for WipeOut entity^I^I^I^I^I^I|Company: Autodesk, Inc.^I^I^I^I^I^I|WEB Address: www.autodesk.com"
 90
    32895
280
     0
281
     1
  0
CLASS
  1
WIPEOUTVARIABLES
  2
AcDbWipeoutVariables
  3
"WipeOut|Product Desc:     WipeOut Dbx Application|Company:          Autodesk, Inc.|WEB Address:      www.autodesk.com"
 90
    32768
280
     0
281
     0
  0
CLASS
  1
RTEXT
  2
RText
  3
RText|AutoCAD Express Tool|expresstools@autodesk.com
 90
    32768
280
     0
281
     1
  0
CLASS
  1
ARCALIGNEDTEXT
  2
AcDbArcAlignedText
  3
ATEXT|AutoCAD Express Tool|expresstools@autodesk.com
 90
    32768
280
     0
281
     1
  0
CLASS
  1
TABLESTYLE
  2
AcDbTableStyle
  3
ObjectDBX Classes
 90
     2047
280
     0
281
     0
  0
ENDSEC
  0
SECTION
  2
TABLES
  0
TABLE
  2
VPORT
  5
7
330
0
100
AcDbSymbolTable
 70
     2
  0
VPORT
  5
1798
330
7
100
AcDbSymbolTableRecord
100
AcDbViewportTableRecord
  2
*Active
 70
     0
 10
0.0
 20
0.0
 11
1.0
 21
1.0
 12
5.646999864933377
 22
1.42830616211345
 13
0.0
 23
0.0
 14
0.05
 24
0.05
 15
0.1
 25
0.1
 16
0.0
 26
0.0
 36
1.0
 17
0.0
 27
0.0
 37
0.0
 40
5.971698182482503
 41
1.936058700209643
 42
50.0
 43
0.0
 44
0.0
 50
0.0
 51
0.0
 71
     0
 72
   100
 73
     1
 74
     0
 75
     1
 76
     1
 77
     0
 78
     0
281
     0
 65
     1
110
0.0
120
0.0
130
0.0
111
1.0
121
0.0
131
0.0
112
0.0
122
1.0
132
0.0
 79
     0
146
0.0
  0
ENDTAB
  0
TABLE
  2
LTYPE
  5
4
330
0
100
AcDbSymbolTable
 70
     1
  0
LTYPE
  5
11
330
4
100
AcDbSymbolTableRecord
100
AcDbLinetypeTableRecord
  2
BYBLOCK
 70
     0
  3

 72
    65
 73
     0
 40
0.0
  0
LTYPE
  5
12
330
4
100
AcDbSymbolTableRecord
100
AcDbLinetypeTableRecord
  2
BYLAYER
 70
     0
  3

 72
    65
 73
     0
 40
0.0
  0
LTYPE
  5
13
330
4
100
AcDbSymbolTableRecord
100
AcDbLinetypeTableRecord
  2
CONTINUOUS
 70
     0
  3
Solid line
 72
    65
 73
     0
 40
0.0
  0
ENDTAB
  0
TABLE
  2
LAYER
  5
2
102
{ACAD_XDICTIONARY
360
CC1
102
}
330
0
100
AcDbSymbolTable
 70
     2
  0
LAYER
  5
14
330
2
100
AcDbSymbolTableRecord
100
AcDbLayerTableRecord
  2
0
 70
     0
 62
     7
  6
CONTINUOUS
370
    -3
390
CB7
  0
LAYER
  5
1310
330
2
100
AcDbSymbolTableRecord
100
AcDbLayerTableRecord
  2
Bars
 70
     0
 62
     7
  6
CONTINUOUS
370
    -3
390
CB7
  0
ENDTAB
  0
TABLE
  2
STYLE
  5
3
330
0
100
AcDbSymbolTable
 70
     2
  0
STYLE
  5
17
330
3
100
AcDbSymbolTableRecord
100
AcDbTextStyleTableRecord
  2
STANDARD
 70
     0
 40
0.0
 41
1.0
 50
0.0
 71
     0
 42
0.1
  3
txt
  4

  0
STYLE
  5
1311
330
3
100
AcDbSymbolTableRecord
100
AcDbTextStyleTableRecord
  2
ROMANT
 70
     0
 40
0.0
 41
1.0
 50
0.0
 71
     0
 42
2.5
  3
romant
  4

  0
ENDTAB
  0
TABLE
  2
VIEW
  5
5
330
0
100
AcDbSymbolTable
 70
     0
  0
ENDTAB
  0
TABLE
  2
UCS
  5
6
330
0
100
AcDbSymbolTable
 70
     0
  0
ENDTAB
  0
TABLE
  2
APPID
  5
8
330
0
100
AcDbSymbolTable
 70
     3
  0
APPID
  5
16
330
8
100
AcDbSymbolTableRecord
100
AcDbRegAppTableRecord
  2
ACAD
 70
     0
  0
APPID
  5
D51
330
8
100
AcDbSymbolTableRecord
100
AcDbRegAppTableRecord
  2
DCO15
 70
     0
  0
APPID
  5
D5A
330
8
100
AcDbSymbolTableRecord
100
AcDbRegAppTableRecord
  2
ACAD_PSEXT
 70
     0
  0
ENDTAB
  0
TABLE
  2
DIMSTYLE
  5
9
330
0
100
AcDbSymbolTable
 70
     1
100
AcDbDimStyleTable
 71
     1
340
18
  0
DIMSTYLE
105
18
330
9
100
AcDbSymbolTableRecord
100
AcDbDimStyleTableRecord
  2
STANDARD
 70
     0
340
17
  0
ENDTAB
  0
TABLE
  2
BLOCK_RECORD
  5
1
330
0
100
AcDbSymbolTable
 70
     0
  0
BLOCK_RECORD
  5
A
102
{ACAD_XDICTIONARY
360
CF3
102
}
330
1
100
AcDbSymbolTableRecord
100
AcDbBlockTableRecord
  2
*MODEL_SPACE
340
CBE
  0
BLOCK_RECORD
  5
B
330
1
100
AcDbSymbolTableRecord
100
AcDbBlockTableRecord
  2
*PAPER_SPACE
340
CBF
  0
ENDTAB
  0
ENDSEC
  0
SECTION
  2
BLOCKS
  0
BLOCK
  5
D
330
A
100
AcDbEntity
  8
0
100
AcDbBlockBegin
  2
*MODEL_SPACE
 70
     0
 10
0.0
 20
0.0
 30
0.0
  3
*MODEL_SPACE
  1

  0
ENDBLK
  5
E
330
A
100
AcDbEntity
  8
0
100
AcDbBlockEnd
  0
BLOCK
  5
F
330
B
100
AcDbEntity
 67
     1
  8
0
100
AcDbBlockBegin
  2
*PAPER_SPACE
 70
     0
 10
0.0
 20
0.0
 30
0.0
  3
*PAPER_SPACE
  1

  0
ENDBLK
  5
10
330
B
100
AcDbEntity
 67
     1
  8
0
100
AcDbBlockEnd
  0
ENDSEC
  0
SECTION
  2
ENTITIES
  0
LWPOLYLINE
  5
23
330
A
100
AcDbEntity
  8
0
 62
     7
100
AcDbPolyline
 90
        2
 70
     0
 43
0.009
 10
4.363999999999999
 20
0.3999999999999999
 10
4.413999999999999
 20
1.399999999999999
  0
LWPOLYLINE
  5
27
330
A
100
AcDbEntity
  8
0
 62
     7
100
AcDbPolyline
 90
        2
 70
     1
 43
0.0045
 10
4.361749999999999
 20
0.3999999999999999
 42
1.0
 10
4.366249999999999
 20
0.3999999999999999
 42
1.0
  0
LWPOLYLINE
  5
2B
330
A
100
AcDbEntity
  8
0
 62
     7
100
AcDbPolyline
 90
        2
 70
     1
 43
0.0045
 10
4.41175
 20
1.399999999999999
 42
1.0
 10
4.416249999999999
 20
1.399999999999999
 42
1.0
  0
LWPOLYLINE
  5
2F
330
A
100
AcDbEntity
  8
0
 62
     7
100
AcDbPolyline
 90
        2
 70
     0
 43
0.009
 10
4.413999999999999
 20
1.399999999999999
 10
4.413999999999999
 20
2.3
  0
LWPOLYLINE
  5
33
330
A
100
AcDbEntity
  8
0
 62
     7
100
AcDbPolyline
 90
        2
 70
     1
 43
0.0045
 10
4.41175
 20
1.399999999999999
 42
1.0
 10
4.416249999999999
 20
1.399999999999999
 42
1.0
  0
LWPOLYLINE
  5
37
330
A
100
AcDbEntity
  8
0
 62
     7
100
AcDbPolyline
 90
        2
 70
     1
 43
0.0045
 10
4.41175
 20
2.3
 42
1.0
 10
4.416249999999999
 20
2.3
 42
1.0
  0
LWPOLYLINE
  5
3B
330
A
100
AcDbEntity
  8
0
 62
     7
100
AcDbPolyline
 90
        2
 70
     0
 43
0.009
 10
4.395999999999999
 20
1.399999999999999
 10
4.395999999999999
 20
2.3
  0
LWPOLYLINE
  5
3F
330
A
100
AcDbEntity
  8
0
 62
     7
100
AcDbPolyline
 90
        2
 70
     1
 43
0.0045
 10
4.393749999999999
 20
1.399999999999999
 42
1.0
 10
4.398249999999999
 20
1.399999999999999
 42
1.0
  0
LWPOLYLINE
  5
43
330
A
100
AcDbEntity
  8
0
 62
     7
100
AcDbPolyline
 90
        2
 70
     1
 43
0.0045
 10
4.393749999999999
 20
2.3
 42
1.0
 10
4.398249999999999
 20
2.3
 42
1.0
  0
LWPOLYLINE
  5
47
330
A
100
AcDbEntity
  8
0
 62
     7
100
AcDbPolyline
 90
        2
 70
     0
 43
0.009
 10
4.346
 20
0.3999999999999999
 10
4.395999999999999
 20
1.399999999999999
  0
LWPOLYLINE
  5
4B
330
A
100
AcDbEntity
  8
0
 62
     7
100
AcDbPolyline
 90
        2
 70
     1
 43
0.0045
 10
4.34375
 20
0.3999999999999999
 42
1.0
 10
4.34825
 20
0.3999999999999999
 42
1.0
  0
LWPOLYLINE
  5
4F
330
A
100
AcDbEntity
  8
0
 62
     7
100
AcDbPolyline
 90
        2
 70
     1
 43
0.0045
 10
4.393749999999999
 20
1.399999999999999
 42
1.0
 10
4.398249999999999
 20
1.399999999999999
 42
1.0
  0
LWPOLYLINE
  5
53
330
A
100
AcDbEntity
  8
0
 62
     7
100
AcDbPolyline
 90
        2
 70
     0
 43
0.009
 10
4.328
 20
0.3999999999999999
 10
4.378
 20
1.399999999999999
  0
LWPOLYLINE
  5
57
330
A
100
AcDbEntity
  8
0
 62
     7
100
AcDbPolyline
 90
        2
 70
     1
 43
0.0045
 10
4.32575
 20
0.3999999999999999
 42
1.0
 10
4.33025
 20
0.3999999999999999
 42
1.0
  0
LWPOLYLINE
  5
5B
330
A
100
AcDbEntity
  8
0
 62
     7
100
AcDbPolyline
 90
        2
 70
     1
 43
0.0045
 10
4.37575
 20
1.399999999999999
 42
1.0
 10
4.38025
 20
1.399999999999999
 42
1.0
  0
LWPOLYLINE
  5
5F
330
A
100
AcDbEntity
  8
0
 62
     7
100
AcDbPolyline
 90
        2
 70
     0
 43
0.009
 10
4.378
 20
1.399999999999999
 10
4.378
 20
2.3
  0
LWPOLYLINE
  5
63
330
A
100
AcDbEntity
  8
0
 62
     7
100
AcDbPolyline
 90
        2
 70
     1
 43
0.0045
 10
4.37575
 20
1.399999999999999
 42
1.0
 10
4.38025
 20
1.399999999999999
 42
1.0
  0
LWPOLYLINE
  5
67
330
A
100
AcDbEntity
  8
0
 62
     7
100
AcDbPolyline
 90
        2
 70
     1
 43
0.0045
 10
4.37575
 20
2.3
 42
1.0
 10
4.38025
 20
2.3
 42
1.0
  0
LWPOLYLINE
  5
6B
330
A
100
AcDbEntity
  8
0
 62
     7
100
AcDbPolyline
 90
        2
 70
     0
 43
0.009
 10
4.36
 20
1.399999999999999
 10
4.36
 20
2.3
  0
LWPOLYLINE
  5
6F
330
A
100
AcDbEntity
  8
0
 62
     7
100
AcDbPolyline
 90
        2
 70
     1
 43
0.0045
 10
4.35775
 20
1.399999999999999
 42
1.0
 10
4.36225
 20
1.399999999999999
 42
1.0
  0
LWPOLYLINE
  5
73
330
A
100
AcDbEntity
  8
0
 62
     7
100
AcDbPolyline
 90
        2
 70
     1
 43
0.0045
 10
4.35775
 20
2.3
 42
1.0
 10
4.36225
 20
2.3
 42
1.0
  0
LWPOLYLINE
  5
77
330
A
100
AcDbEntity
  8
0
 62
     7
100
AcDbPolyline
 90
        2
 70
     0
 43
0.009
 10
4.31
 20
0.3999999999999999
 10
4.36
 20
1.399999999999999
  0
LWPOLYLINE
  5
7B
330
A
100
AcDbEntity
  8
0
 62
     7
100
AcDbPolyline
 90
        2
 70
     1
 43
0.0045
 10
4.30775
 20
0.3999999999999999
 42
1.0
 10
4.31225
 20
0.3999999999999999
 42
1.0
  0
LWPOLYLINE
  5
7F
330
A
100
AcDbEntity
  8
0
 62
     7
100
AcDbPolyline
 90
        2
 70
     1
 43
0.0045
 10
4.35775
 20
1.399999999999999
 42
1.0
 10
4.36225
 20
1.399999999999999
 42
1.0
  0
LWPOLYLINE
  5
83
330
A
100
AcDbEntity
  8
0
 62
     7
100
AcDbPolyline
 90
        2
 70
     0
 43
0.009
 10
4.291999999999999
 20
0.3999999999999999
 10
4.342
 20
1.399999999999999
  0
LWPOLYLINE
  5
87
330
A
100
AcDbEntity
  8
0
 62
     7
100
AcDbPolyline
 90
        2
 70
     1
 43
0.0045
 10
4.289749999999999
 20
0.3999999999999999
 42
1.0
 10
4.294249999999999
 20
0.3999999999999999
 42
1.0
  0
LWPOLYLINE
  5
8B
330
A
100
AcDbEntity
  8
0
 62
     7
100
AcDbPolyline
 90
        2
 70
     1
 43
0.0045
 10
4.33975
 20
1.399999999999999
 42
1.0
 10
4.34425
 20
1.399999999999999
 42
1.0
  0
LWPOLYLINE
  5
8F
330
A
100
AcDbEntity
  8
0
 62
     7
100
AcDbPolyline
 90
        2
 70
     0
 43
0.009
 10
4.342
 20
1.399999999999999
 10
4.342
 20
2.3
  0
LWPOLYLINE
  5
93
330
A
100
AcDbEntity
  8
0
 62
     7
100
AcDbPolyline
 90
        2
 70
     1
 43
0.0045
 10
4.33975
 20
1.399999999999999
 42
1.0
 10
4.34425
 20
1.399999999999999
 42
1.0
  0
LWPOLYLINE
  5
97
330
A
100
AcDbEntity
  8
0
 62
     7
100
AcDbPolyline
 90
        2
 70
     1
 43
0.0045
 10
4.33975
 20
2.3
 42
1.0
 10
4.34425
 20
2.3
 42
1.0
  0
LWPOLYLINE
  5
9B
330
A
100
AcDbEntity
  8
0
 62
     7
100
AcDbPolyline
 90
        2
 70
     0
 43
0.008
 10
4.256
 20
0.3999999999999999
 10
4.306
 20
1.399999999999999
  0
LWPOLYLINE
  5
9F
330
A
100
AcDbEntity
  8
0
 62
     7
100
AcDbPolyline
 90
        2
 70
     1
 43
0.004
 10
4.254
 20
0.3999999999999999
 42
1.0
 10
4.258
 20
0.3999999999999999
 42
1.0
  0
LWPOLYLINE
  5
A3
330
A
100
AcDbEntity
  8
0
 62
     7
100
AcDbPolyline
 90
        2
 70
     1
 43
0.004
 10
4.304
 20
1.399999999999999
 42
1.0
 10
4.308
 20
1.399999999999999
 42
1.0
  0
LWPOLYLINE
  5
A7
330
A
100
AcDbEntity
  8
0
 62
     7
100
AcDbPolyline
 90
        2
 70
     0
 43
0.008
 10
4.306
 20
1.399999999999999
 10
4.306
 20
2.3
  0
LWPOLYLINE
  5
AB
330
A
100
AcDbEntity
  8
0
 62
     7
100
AcDbPolyline
 90
        2
 70
     1
 43
0.004
 10
4.304
 20
1.399999999999999
 42
1.0
 10
4.308
 20
1.399999999999999
 42
1.0
  0
LWPOLYLINE
  5
AF
330
A
100
AcDbEntity
  8
0
 62
     7
100
AcDbPolyline
 90
        2
 70
     1
 43
0.004
 10
4.304
 20
2.3
 42
1.0
 10
4.308
 20
2.3
 42
1.0
  0
LWPOLYLINE
  5
B3
330
A
100
AcDbEntity
  8
0
 62
     7
100
AcDbPolyline
 90
        2
 70
     0
 43
0.008
 10
4.29
 20
1.399999999999999
 10
4.29
 20
2.3
  0
LWPOLYLINE
  5
B7
330
A
100
AcDbEntity
  8
0
 62
     7
100
AcDbPolyline
 90
        2
 70
     1
 43
0.004
 10
4.288
 20
1.399999999999999
 42
1.0
 10
4.291999999999999
 20
1.399999999999999
 42
1.0
  0
LWPOLYLINE
  5
BB
330
A
100
AcDbEntity
  8
0
 62
     7
100
AcDbPolyline
 90
        2
 70
     1
 43
0.004
 10
4.288
 20
2.3
 42
1.0
 10
4.291999999999999
 20
2.3
 42
1.0
  0
LWPOLYLINE
  5
BF
330
A
100
AcDbEntity
  8
0
 62
     7
100
AcDbPolyline
 90
        2
 70
     0
 43
0.008
 10
4.24
 20
0.3999999999999999
 10
4.29
 20
1.399999999999999
  0
LWPOLYLINE
  5
C3
330
A
100
AcDbEntity
  8
0
 62
     7
100
AcDbPolyline
 90
        2
 70
     1
 43
0.004
 10
4.238
 20
0.3999999999999999
 42
1.0
 10
4.241999999999999
 20
0.3999999999999999
 42
1.0
  0
LWPOLYLINE
  5
C7
330
A
100
AcDbEntity
  8
0
 62
     7
100
AcDbPolyline
 90
        2
 70
     1
 43
0.004
 10
4.288
 20
1.399999999999999
 42
1.0
 10
4.291999999999999
 20
1.399999999999999
 42
1.0
  0
LWPOLYLINE
  5
CB
330
A
100
AcDbEntity
  8
0
 62
     7
100
AcDbPolyline
 90
        2
 70
     0
 43
0.008
 10
4.224
 20
0.3999999999999999
 10
4.274
 20
1.399999999999999
  0
LWPOLYLINE
  5
CF
330
A
100
AcDbEntity
  8
0
 62
     7
100
AcDbPolyline
 90
        2
 70
     1
 43
0.004
 10
4.222
 20
0.3999999999999999
 42
1.0
 10
4.225999999999999
 20
0.3999999999999999
 42
1.0
  0
LWPOLYLINE
  5
D3
330
A
100
AcDbEntity
  8
0
 62
     7
100
AcDbPolyline
 90
        2
 70
     1
 43
0.004
 10
4.272
 20
1.399999999999999
 42
1.0
 10
4.275999999999999
 20
1.399999999999999
 42
1.0
  0
LWPOLYLINE
  5
D7
330
A
100
AcDbEntity
  8
0
 62
     7
100
AcDbPolyline
 90
        2
 70
     0
 43
0.008
 10
4.274
 20
1.399999999999999
 10
4.274
 20
2.3
  0
LWPOLYLINE
  5
DB
330
A
100
AcDbEntity
  8
0
 62
     7
100
AcDbPolyline
 90
        2
 70
     1
 43
0.004
 10
4.272
 20
1.399999999999999
 42
1.0
 10
4.275999999999999
 20
1.399999999999999
 42
1.0
  0
LWPOLYLINE
  5
DF
330
A
100
AcDbEntity
  8
0
 62
     7
100
AcDbPolyline
 90
        2
 70
     1
 43
0.004
 10
4.272
 20
2.3
 42
1.0
 10
4.275999999999999
 20
2.3
 42
1.0
  0
LWPOLYLINE
  5
E3
330
A
100
AcDbEntity
  8
0
 62
     7
100
AcDbPolyline
 90
        2
 70
     0
 43
0.008
 10
4.258
 20
1.399999999999999
 10
4.258
 20
2.3
  0
LWPOLYLINE
  5
E7
330
A
100
AcDbEntity
  8
0
 62
     7
100
AcDbPolyline
 90
        2
 70
     1
 43
0.004
 10
4.256
 20
1.399999999999999
 42
1.0
 10
4.26
 20
1.399999999999999
 42
1.0
  0
LWPOLYLINE
  5
EB
330
A
100
AcDbEntity
  8
0
 62
     7
100
AcDbPolyline
 90
        2
 70
     1
 43
0.004
 10
4.256
 20
2.3
 42
1.0
 10
4.26
 20
2.3
 42
1.0
  0
LWPOLYLINE
  5
EF
330
A
100
AcDbEntity
  8
0
 62
     7
100
AcDbPolyline
 90
        2
 70
     0
 43
0.008
 10
4.208
 20
0.3999999999999999
 10
4.258
 20
1.399999999999999
  0
LWPOLYLINE
  5
F3
330
A
100
AcDbEntity
  8
0
 62
     7
100
AcDbPolyline
 90
        2
 70
     1
 43
0.004
 10
4.205999999999999
 20
0.3999999999999999
 42
1.0
 10
4.209999999999999
 20
0.3999999999999999
 42
1.0
  0
LWPOLYLINE
  5
F7
330
A
100
AcDbEntity
  8
0
 62
     7
100
AcDbPolyline
 90
        2
 70
     1
 43
0.004
 10
4.256
 20
1.399999999999999
 42
1.0
 10
4.26
 20
1.399999999999999
 42
1.0
  0
LWPOLYLINE
  5
FB
330
A
100
AcDbEntity
  8
0
 62
     7
100
AcDbPolyline
 90
        2
 70
     0
 43
0.008
 10
4.192
 20
0.3999999999999999
 10
4.241999999999999
 20
1.399999999999999
  0
LWPOLYLINE
  5
FF
330
A
100
AcDbEntity
  8
0
 62
     7
100
AcDbPolyline
 90
        2
 70
     1
 43
0.004
 10
4.19
 20
0.3999999999999999
 42
1.0
 10
4.193999999999999
 20
0.3999999999999999
 42
1.0
  0
LWPOLYLINE
  5
103
330
A
100
AcDbEntity
  8
0
 62
     7
100
AcDbPolyline
 90
        2
 70
     1
 43
0.004
 10
4.24
 20
1.399999999999999
 42
1.0
 10
4.243999999999999
 20
1.399999999999999
 42
1.0
  0
LWPOLYLINE
  5
107
330
A
100
AcDbEntity
  8
0
 62
     7
100
AcDbPolyline
 90
        2
 70
     0
 43
0.008
 10
4.241999999999999
 20
1.399999999999999
 10
4.241999999999999
 20
2.3
  0
LWPOLYLINE
  5
10B
330
A
100
AcDbEntity
  8
0
 62
     7
100
AcDbPolyline
 90
        2
 70
     1
 43
0.004
 10
4.24
 20
1.399999999999999
 42
1.0
 10
4.243999999999999
 20
1.399999999999999
 42
1.0
  0
LWPOLYLINE
  5
10F
330
A
100
AcDbEntity
  8
0
 62
     7
100
AcDbPolyline
 90
        2
 70
     1
 43
0.004
 10
4.24
 20
2.3
 42
1.0
 10
4.243999999999999
 20
2.3
 42
1.0
  0
LWPOLYLINE
  5
113
330
A
100
AcDbEntity
  8
0
 62
     7
100
AcDbPolyline
 90
        2
 70
     0
 43
0.007
 10
4.148
 20
0.3999999999999999
 10
4.198
 20
1.399999999999999
  0
LWPOLYLINE
  5
117
330
A
100
AcDbEntity
  8
0
 62
     7
100
AcDbPolyline
 90
        2
 70
     1
 43
0.0035
 10
4.14625
 20
0.3999999999999999
 42
1.0
 10
4.14975
 20
0.3999999999999999
 42
1.0
  0
LWPOLYLINE
  5
11B
330
A
100
AcDbEntity
  8
0
 62
     7
100
AcDbPolyline
 90
        2
 70
     1
 43
0.0035
 10
4.19625
 20
1.399999999999999
 42
1.0
 10
4.199749999999999
 20
1.399999999999999
 42
1.0
  0
LWPOLYLINE
  5
11F
330
A
100
AcDbEntity
  8
0
 62
     7
100
AcDbPolyline
 90
        2
 70
     0
 43
0.007
 10
4.198
 20
1.399999999999999
 10
4.198
 20
2.3
  0
LWPOLYLINE
  5
123
330
A
100
AcDbEntity
  8
0
 62
     7
100
AcDbPolyline
 90
        2
 70
     1
 43
0.0035
 10
4.19625
 20
1.399999999999999
 42
1.0
 10
4.199749999999999
 20
1.399999999999999
 42
1.0
  0
LWPOLYLINE
  5
127
330
A
100
AcDbEntity
  8
0
 62
     7
100
AcDbPolyline
 90
        2
 70
     1
 43
0.0035
 10
4.19625
 20
2.3
 42
1.0
 10
4.199749999999999
 20
2.3
 42
1.0
  0
LWPOLYLINE
  5
12B
330
A
100
AcDbEntity
  8
0
 62
     7
100
AcDbPolyline
 90
        2
 70
     0
 43
0.007
 10
4.184
 20
1.399999999999999
 10
4.184
 20
2.3
  0
LWPOLYLINE
  5
12F
330
A
100
AcDbEntity
  8
0
 62
     7
100
AcDbPolyline
 90
        2
 70
     1
 43
0.0035
 10
4.182249999999999
 20
1.399999999999999
 42
1.0
 10
4.18575
 20
1.399999999999999
 42
1.0
  0
LWPOLYLINE
  5
133
330
A
100
AcDbEntity
  8
0
 62
     7
100
AcDbPolyline
 90
        2
 70
     1
 43
0.0035
 10
4.182249999999999
 20
2.3
 42
1.0
 10
4.18575
 20
2.3
 42
1.0
  0
LWPOLYLINE
  5
137
330
A
100
AcDbEntity
  8
0
 62
     7
100
AcDbPolyline
 90
        2
 70
     0
 43
0.007
 10
4.134
 20
0.3999999999999999
 10
4.184
 20
1.399999999999999
  0
LWPOLYLINE
  5
13B
330
A
100
AcDbEntity
  8
0
 62
     7
100
AcDbPolyline
 90
        2
 70
     1
 43
0.0035
 10
4.132249999999999
 20
0.3999999999999999
 42
1.0
 10
4.135749999999999
 20
0.3999999999999999
 42
1.0
  0
LWPOLYLINE
  5
13F
330
A
100
AcDbEntity
  8
0
 62
     7
100
AcDbPolyline
 90
        2
 70
     1
 43
0.0035
 10
4.182249999999999
 20
1.399999999999999
 42
1.0
 10
4.18575
 20
1.399999999999999
 42
1.0
  0
LWPOLYLINE
  5
143
330
A
100
AcDbEntity
  8
0
 62
     7
100
AcDbPolyline
 90
        2
 70
     0
 43
0.007
 10
4.12
 20
0.3999999999999999
 10
4.169999999999999
 20
1.399999999999999
  0
LWPOLYLINE
  5
147
330
A
100
AcDbEntity
  8
0
 62
     7
100
AcDbPolyline
 90
        2
 70
     1
 43
0.0035
 10
4.118249999999999
 20
0.3999999999999999
 42
1.0
 10
4.12175
 20
0.3999999999999999
 42
1.0
  0
LWPOLYLINE
  5
14B
330
A
100
AcDbEntity
  8
0
 62
     7
100
AcDbPolyline
 90
        2
 70
     1
 43
0.0035
 10
4.16825
 20
1.399999999999999
 42
1.0
 10
4.17175
 20
1.399999999999999
 42
1.0
  0
LWPOLYLINE
  5
14F
330
A
100
AcDbEntity
  8
0
 62
     7
100
AcDbPolyline
 90
        2
 70
     0
 43
0.007
 10
4.169999999999999
 20
1.399999999999999
 10
4.169999999999999
 20
2.3
  0
LWPOLYLINE
  5
153
330
A
100
AcDbEntity
  8
0
 62
     7
100
AcDbPolyline
 90
        2
 70
     1
 43
0.0035
 10
4.16825
 20
1.399999999999999
 42
1.0
 10
4.17175
 20
1.399999999999999
 42
1.0
  0
LWPOLYLINE
  5
157
330
A
100
AcDbEntity
  8
0
 62
     7
100
AcDbPolyline
 90
        2
 70
     1
 43
0.0035
 10
4.16825
 20
2.3
 42
1.0
 10
4.17175
 20
2.3
 42
1.0
  0
LWPOLYLINE
  5
15B
330
A
100
AcDbEntity
  8
0
 62
     7
100
AcDbPolyline
 90
        2
 70
     0
 43
0.007
 10
4.155999999999999
 20
1.399999999999999
 10
4.155999999999999
 20
2.3
  0
LWPOLYLINE
  5
15F
330
A
100
AcDbEntity
  8
0
 62
     7
100
AcDbPolyline
 90
        2
 70
     1
 43
0.0035
 10
4.15425
 20
1.399999999999999
 42
1.0
 10
4.15775
 20
1.399999999999999
 42
1.0
  0
LWPOLYLINE
  5
163
330
A
100
AcDbEntity
  8
0
 62
     7
100
AcDbPolyline
 90
        2
 70
     1
 43
0.0035
 10
4.15425
 20
2.3
 42
1.0
 10
4.15775
 20
2.3
 42
1.0
  0
LWPOLYLINE
  5
167
330
A
100
AcDbEntity
  8
0
 62
     7
100
AcDbPolyline
 90
        2
 70
     0
 43
0.007
 10
4.105999999999999
 20
0.3999999999999999
 10
4.155999999999999
 20
1.399999999999999
  0
LWPOLYLINE
  5
16B
330
A
100
AcDbEntity
  8
0
 62
     7
100
AcDbPolyline
 90
        2
 70
     1
 43
0.0035
 10
4.10425
 20
0.3999999999999999
 42
1.0
 10
4.10775
 20
0.3999999999999999
 42
1.0
  0
LWPOLYLINE
  5
16F
330
A
100
AcDbEntity
  8
0
 62
     7
100
AcDbPolyline
 90
        2
 70
     1
 43
0.0035
 10
4.15425
 20
1.399999999999999
 42
1.0
 10
4.15775
 20
1.399999999999999
 42
1.0
  0
LWPOLYLINE
  5
173
330
A
100
AcDbEntity
  8
0
 62
     7
100
AcDbPolyline
 90
        2
 70
     0
 43
0.007
 10
4.092
 20
0.3999999999999999
 10
4.142
 20
1.399999999999999
  0
LWPOLYLINE
  5
177
330
A
100
AcDbEntity
  8
0
 62
     7
100
AcDbPolyline
 90
        2
 70
     1
 43
0.0035
 10
4.09025
 20
0.3999999999999999
 42
1.0
 10
4.09375
 20
0.3999999999999999
 42
1.0
  0
LWPOLYLINE
  5
17B
330
A
100
AcDbEntity
  8
0
 62
     7
100
AcDbPolyline
 90
        2
 70
     1
 43
0.0035
 10
4.140249999999999
 20
1.399999999999999
 42
1.0
 10
4.143749999999999
 20
1.399999999999999
 42
1.0
  0
LWPOLYLINE
  5
17F
330
A
100
AcDbEntity
  8
0
 62
     7
100
AcDbPolyline
 90
        2
 70
     0
 43
0.007
 10
4.142
 20
1.399999999999999
 10
4.142
 20
2.3
  0
LWPOLYLINE
  5
183
330
A
100
AcDbEntity
  8
0
 62
     7
100
AcDbPolyline
 90
        2
 70
     1
 43
0.0035
 10
4.140249999999999
 20
1.399999999999999
 42
1.0
 10
4.143749999999999
 20
1.399999999999999
 42
1.0
  0
LWPOLYLINE
  5
187
330
A
100
AcDbEntity
  8
0
 62
     7
100
AcDbPolyline
 90
        2
 70
     1
 43
0.0035
 10
4.140249999999999
 20
2.3
 42
1.0
 10
4.143749999999999
 20
2.3
 42
1.0
  0
LWPOLYLINE
  5
18B
330
A
100
AcDbEntity
  8
0
 62
     7
100
AcDbPolyline
 90
        2
 70
     0
 43
0.006
 10
4.04
 20
0.3999999999999999
 10
4.089999999999999
 20
1.399999999999999
  0
LWPOLYLINE
  5
18F
330
A
100
AcDbEntity
  8
0
 62
     7
100
AcDbPolyline
 90
        2
 70
     1
 43
0.003
 10
4.038499999999999
 20
0.3999999999999999
 42
1.0
 10
4.0415
 20
0.3999999999999999
 42
1.0
  0
LWPOLYLINE
  5
193
330
A
100
AcDbEntity
  8
0
 62
     7
100
AcDbPolyline
 90
        2
 70
     1
 43
0.003
 10
4.088499999999999
 20
1.399999999999999
 42
1.0
 10
4.091499999999999
 20
1.399999999999999
 42
1.0
  0
LWPOLYLINE
  5
197
330
A
100
AcDbEntity
  8
0
 62
     7
100
AcDbPolyline
 90
        2
 70
     0
 43
0.006
 10
4.089999999999999
 20
1.399999999999999
 10
4.089999999999999
 20
2.3
  0
LWPOLYLINE
  5
19B
330
A
100
AcDbEntity
  8
0
 62
     7
100
AcDbPolyline
 90
        2
 70
     1
 43
0.003
 10
4.088499999999999
 20
1.399999999999999
 42
1.0
 10
4.091499999999999
 20
1.399999999999999
 42
1.0
  0
LWPOLYLINE
  5
19F
330
A
100
AcDbEntity
  8
0
 62
     7
100
AcDbPolyline
 90
        2
 70
     1
 43
0.003
 10
4.088499999999999
 20
2.3
 42
1.0
 10
4.091499999999999
 20
2.3
 42
1.0
  0
LWPOLYLINE
  5
1A3
330
A
100
AcDbEntity
  8
0
 62
     7
100
AcDbPolyline
 90
        2
 70
     0
 43
0.006
 10
4.078
 20
1.399999999999999
 10
4.078
 20
2.3
  0
LWPOLYLINE
  5
1A7
330
A
100
AcDbEntity
  8
0
 62
     7
100
AcDbPolyline
 90
        2
 70
     1
 43
0.003
 10
4.0765
 20
1.399999999999999
 42
1.0
 10
4.0795
 20
1.399999999999999
 42
1.0
  0
LWPOLYLINE
  5
1AB
330
A
100
AcDbEntity
  8
0
 62
     7
100
AcDbPolyline
 90
        2
 70
     1
 43
0.003
 10
4.0765
 20
2.3
 42
1.0
 10
4.0795
 20
2.3
 42
1.0
  0
LWPOLYLINE
  5
1AF
330
A
100
AcDbEntity
  8
0
 62
     7
100
AcDbPolyline
 90
        2
 70
     0
 43
0.006
 10
4.028
 20
0.3999999999999999
 10
4.078
 20
1.399999999999999
  0
LWPOLYLINE
  5
1B3
330
A
100
AcDbEntity
  8
0
 62
     7
100
AcDbPolyline
 90
        2
 70
     1
 43
0.003
 10
4.0265
 20
0.3999999999999999
 42
1.0
 10
4.0295
 20
0.3999999999999999
 42
1.0
  0
LWPOLYLINE
  5
1B7
330
A
100
AcDbEntity
  8
0
 62
     7
100
AcDbPolyline
 90
        2
 70
     1
 43
0.003
 10
4.0765
 20
1.399999999999999
 42
1.0
 10
4.0795
 20
1.399999999999999
 42
1.0
  0
LWPOLYLINE
  5
1BB
330
A
100
AcDbEntity
  8
0
 62
     7
100
AcDbPolyline
 90
        2
 70
     0
 43
0.006
 10
4.016
 20
0.3999999999999999
 10
4.065999999999999
 20
1.399999999999999
  0
LWPOLYLINE
  5
1BF
330
A
100
AcDbEntity
  8
0
 62
     7
100
AcDbPolyline
 90
        2
 70
     1
 43
0.003
 10
4.014499999999999
 20
0.3999999999999999
 42
1.0
 10
4.0175
 20
0.3999999999999999
 42
1.0
  0
LWPOLYLINE
  5
1C3
330
A
100
AcDbEntity
  8
0
 62
     7
100
AcDbPolyline
 90
        2
 70
     1
 43
0.003
 10
4.064499999999999
 20
1.399999999999999
 42
1.0
 10
4.067499999999999
 20
1.399999999999999
 42
1.0
  0
LWPOLYLINE
  5
1C7
330
A
100
AcDbEntity
  8
0
 62
     7
100
AcDbPolyline
 90
        2
 70
     0
 43
0.006
 10
4.065999999999999
 20
1.399999999999999
 10
4.065999999999999
 20
2.3
  0
LWPOLYLINE
  5
1CB
330
A
100
AcDbEntity
  8
0
 62
     7
100
AcDbPolyline
 90
        2
 70
     1
 43
0.003
 10
4.064499999999999
 20
1.399999999999999
 42
1.0
 10
4.067499999999999
 20
1.399999999999999
 42
1.0
  0
LWPOLYLINE
  5
1CF
330
A
100
AcDbEntity
  8
0
 62
     7
100
AcDbPolyline
 90
        2
 70
     1
 43
0.003
 10
4.064499999999999
 20
2.3
 42
1.0
 10
4.067499999999999
 20
2.3
 42
1.0
  0
LWPOLYLINE
  5
1D3
330
A
100
AcDbEntity
  8
0
 62
     7
100
AcDbPolyline
 90
        2
 70
     0
 43
0.006
 10
4.054
 20
1.399999999999999
 10
4.054
 20
2.3
  0
LWPOLYLINE
  5
1D7
330
A
100
AcDbEntity
  8
0
 62
     7
100
AcDbPolyline
 90
        2
 70
     1
 43
0.003
 10
4.0525
 20
1.399999999999999
 42
1.0
 10
4.0555
 20
1.399999999999999
 42
1.0
  0
LWPOLYLINE
  5
1DB
330
A
100
AcDbEntity
  8
0
 62
     7
100
AcDbPolyline
 90
        2
 70
     1
 43
0.003
 10
4.0525
 20
2.3
 42
1.0
 10
4.0555
 20
2.3
 42
1.0
  0
LWPOLYLINE
  5
1DF
330
A
100
AcDbEntity
  8
0
 62
     7
100
AcDbPolyline
 90
        2
 70
     0
 43
0.006
 10
4.004
 20
0.3999999999999999
 10
4.054
 20
1.399999999999999
  0
LWPOLYLINE
  5
1E3
330
A
100
AcDbEntity
  8
0
 62
     7
100
AcDbPolyline
 90
        2
 70
     1
 43
0.003
 10
4.0025
 20
0.3999999999999999
 42
1.0
 10
4.0055
 20
0.3999999999999999
 42
1.0
  0
LWPOLYLINE
  5
1E7
330
A
100
AcDbEntity
  8
0
 62
     7
100
AcDbPolyline
 90
        2
 70
     1
 43
0.003
 10
4.0525
 20
1.399999999999999
 42
1.0
 10
4.0555
 20
1.399999999999999
 42
1.0
  0
LWPOLYLINE
  5
1EB
330
A
100
AcDbEntity
  8
0
 62
     7
100
AcDbPolyline
 90
        2
 70
     0
 43
0.006
 10
3.991999999999999
 20
0.3999999999999999
 10
4.041999999999999
 20
1.399999999999999
  0
LWPOLYLINE
  5
1EF
330
A
100
AcDbEntity
  8
0
 62
     7
100
AcDbPolyline
 90
        2
 70
     1
 43
0.003
 10
3.990499999999999
 20
0.3999999999999999
 42
1.0
 10
3.9935
 20
0.3999999999999999
 42
1.0
  0
LWPOLYLINE
  5
1F3
330
A
100
AcDbEntity
  8
0
 62
     7
100
AcDbPolyline
 90
        2
 70
     1
 43
0.003
 10
4.040499999999999
 20
1.399999999999999
 42
1.0
 10
4.043499999999999
 20
1.399999999999999
 42
1.0
  0
LWPOLYLINE
  5
1F7
330
A
100
AcDbEntity
  8
0
 62
     7
100
AcDbPolyline
 90
        2
 70
     0
 43
0.006
 10
4.041999999999999
 20
1.399999999999999
 10
4.041999999999999
 20
2.3
  0
LWPOLYLINE
  5
1FB
330
A
100
AcDbEntity
  8
0
 62
     7
100
AcDbPolyline
 90
        2
 70
     1
 43
0.003
 10
4.040499999999999
 20
1.399999999999999
 42
1.0
 10
4.043499999999999
 20
1.399999999999999
 42
1.0
  0
LWPOLYLINE
  5
1FF
330
A
100
AcDbEntity
  8
0
 62
     7
100
AcDbPolyline
 90
        2
 70
     1
 43
0.003
 10
4.040499999999999
 20
2.3
 42
1.0
 10
4.043499999999999
 20
2.3
 42
1.0
  0
LWPOLYLINE
  5
203
330
A
100
AcDbEntity
  8
0
 62
     7
100
AcDbPolyline
 90
        2
 70
     0
 43
0.003
 10
3.715999999999999
 20
0.3999999999999999
 10
3.766
 20
1.399999999999999
  0
LWPOLYLINE
  5
207
330
A
100
AcDbEntity
  8
0
 62
     7
100
AcDbPolyline
 90
        2
 70
     1
 43
0.0015
 10
3.71525
 20
0.3999999999999999
 42
1.0
 10
3.71675
 20
0.3999999999999999
 42
1.0
  0
LWPOLYLINE
  5
20B
330
A
100
AcDbEntity
  8
0
 62
     7
100
AcDbPolyline
 90
        2
 70
     1
 43
0.0015
 10
3.765249999999999
 20
1.399999999999999
 42
1.0
 10
3.76675
 20
1.399999999999999
 42
1.0
  0
LWPOLYLINE
  5
20F
330
A
100
AcDbEntity
  8
0
 62
     7
100
AcDbPolyline
 90
        2
 70
     0
 43
0.003
 10
3.766
 20
1.399999999999999
 10
3.766
 20
2.3
  0
LWPOLYLINE
  5
213
330
A
100
AcDbEntity
  8
0
 62
     7
100
AcDbPolyline
 90
        2
 70
     1
 43
0.0015
 10
3.765249999999999
 20
1.399999999999999
 42
1.0
 10
3.76675
 20
1.399999999999999
 42
1.0
  0
LWPOLYLINE
  5
217
330
A
100
AcDbEntity
  8
0
 62
     7
100
AcDbPolyline
 90
        2
 70
     1
 43
0.0015
 10
3.765249999999999
 20
2.3
 42
1.0
 10
3.76675
 20
2.3
 42
1.0
  0
LWPOLYLINE
  5
21B
330
A
100
AcDbEntity
  8
0
 62
     7
100
AcDbPolyline
 90
        2
 70
     0
 43
0.003
 10
3.759999999999999
 20
1.399999999999999
 10
3.759999999999999
 20
2.3
  0
LWPOLYLINE
  5
21F
330
A
100
AcDbEntity
  8
0
 62
     7
100
AcDbPolyline
 90
        2
 70
     1
 43
0.0015
 10
3.759249999999999
 20
1.399999999999999
 42
1.0
 10
3.760749999999999
 20
1.399999999999999
 42
1.0
  0
LWPOLYLINE
  5
223
330
A
100
AcDbEntity
  8
0
 62
     7
100
AcDbPolyline
 90
        2
 70
     1
 43
0.0015
 10
3.759249999999999
 20
2.3
 42
1.0
 10
3.760749999999999
 20
2.3
 42
1.0
  0
LWPOLYLINE
  5
227
330
A
100
AcDbEntity
  8
0
 62
     7
100
AcDbPolyline
 90
        2
 70
     0
 43
0.003
 10
3.709999999999999
 20
0.3999999999999999
 10
3.759999999999999
 20
1.399999999999999
  0
LWPOLYLINE
  5
22B
330
A
100
AcDbEntity
  8
0
 62
     7
100
AcDbPolyline
 90
        2
 70
     1
 43
0.0015
 10
3.709249999999999
 20
0.3999999999999999
 42
1.0
 10
3.710749999999999
 20
0.3999999999999999
 42
1.0
  0
LWPOLYLINE
  5
22F
330
A
100
AcDbEntity
  8
0
 62
     7
100
AcDbPolyline
 90
        2
 70
     1
 43
0.0015
 10
3.759249999999999
 20
1.399999999999999
 42
1.0
 10
3.760749999999999
 20
1.399999999999999
 42
1.0
  0
LWPOLYLINE
  5
233
330
A
100
AcDbEntity
  8
0
 62
     7
100
AcDbPolyline
 90
        2
 70
     0
 43
0.003
 10
3.703999999999999
 20
0.3999999999999999
 10
3.753999999999999
 20
1.399999999999999
  0
LWPOLYLINE
  5
237
330
A
100
AcDbEntity
  8
0
 62
     7
100
AcDbPolyline
 90
        2
 70
     1
 43
0.0015
 10
3.703249999999999
 20
0.3999999999999999
 42
1.0
 10
3.704749999999999
 20
0.3999999999999999
 42
1.0
  0
LWPOLYLINE
  5
23B
330
A
100
AcDbEntity
  8
0
 62
     7
100
AcDbPolyline
 90
        2
 70
     1
 43
0.0015
 10
3.753249999999999
 20
1.399999999999999
 42
1.0
 10
3.754749999999999
 20
1.399999999999999
 42
1.0
  0
LWPOLYLINE
  5
23F
330
A
100
AcDbEntity
  8
0
 62
     7
100
AcDbPolyline
 90
        2
 70
     0
 43
0.003
 10
3.753999999999999
 20
1.399999999999999
 10
3.753999999999999
 20
2.3
  0
LWPOLYLINE
  5
243
330
A
100
AcDbEntity
  8
0
 62
     7
100
AcDbPolyline
 90
        2
 70
     1
 43
0.0015
 10
3.753249999999999
 20
1.399999999999999
 42
1.0
 10
3.754749999999999
 20
1.399999999999999
 42
1.0
  0
LWPOLYLINE
  5
247
330
A
100
AcDbEntity
  8
0
 62
     7
100
AcDbPolyline
 90
        2
 70
     1
 43
0.0015
 10
3.753249999999999
 20
2.3
 42
1.0
 10
3.754749999999999
 20
2.3
 42
1.0
  0
LWPOLYLINE
  5
24B
330
A
100
AcDbEntity
  8
0
 62
     7
100
AcDbPolyline
 90
        2
 70
     0
 43
0.003
 10
3.748
 20
1.399999999999999
 10
3.748
 20
2.3
  0
LWPOLYLINE
  5
24F
330
A
100
AcDbEntity
  8
0
 62
     7
100
AcDbPolyline
 90
        2
 70
     1
 43
0.0015
 10
3.74725
 20
1.399999999999999
 42
1.0
 10
3.74875
 20
1.399999999999999
 42
1.0
  0
LWPOLYLINE
  5
253
330
A
100
AcDbEntity
  8
0
 62
     7
100
AcDbPolyline
 90
        2
 70
     1
 43
0.0015
 10
3.74725
 20
2.3
 42
1.0
 10
3.74875
 20
2.3
 42
1.0
  0
LWPOLYLINE
  5
257
330
A
100
AcDbEntity
  8
0
 62
     7
100
AcDbPolyline
 90
        2
 70
     0
 43
0.003
 10
3.698
 20
0.3999999999999999
 10
3.748
 20
1.399999999999999
  0
LWPOLYLINE
  5
25B
330
A
100
AcDbEntity
  8
0
 62
     7
100
AcDbPolyline
 90
        2
 70
     1
 43
0.0015
 10
3.69725
 20
0.3999999999999999
 42
1.0
 10
3.698749999999999
 20
0.3999999999999999
 42
1.0
  0
LWPOLYLINE
  5
25F
330
A
100
AcDbEntity
  8
0
 62
     7
100
AcDbPolyline
 90
        2
 70
     1
 43
0.0015
 10
3.74725
 20
1.399999999999999
 42
1.0
 10
3.74875
 20
1.399999999999999
 42
1.0
  0
LWPOLYLINE
  5
263
330
A
100
AcDbEntity
  8
0
 62
     7
100
AcDbPolyline
 90
        2
 70
     0
 43
0.003
 10
3.692
 20
0.3999999999999999
 10
3.741999999999999
 20
1.399999999999999
  0
LWPOLYLINE
  5
267
330
A
100
AcDbEntity
  8
0
 62
     7
100
AcDbPolyline
 90
        2
 70
     1
 43
0.0015
 10
3.69125
 20
0.3999999999999999
 42
1.0
 10
3.69275
 20
0.3999999999999999
 42
1.0
  0
LWPOLYLINE
  5
26B
330
A
100
AcDbEntity
  8
0
 62
     7
100
AcDbPolyline
 90
        2
 70
     1
 43
0.0015
 10
3.741249999999999
 20
1.399999999999999
 42
1.0
 10
3.74275
 20
1.399999999999999
 42
1.0
  0
LWPOLYLINE
  5
26F
330
A
100
AcDbEntity
  8
0
 62
     7
100
AcDbPolyline
 90
        2
 70
     0
 43
0.003
 10
3.741999999999999
 20
1.399999999999999
 10
3.741999999999999
 20
2.3
  0
LWPOLYLINE
  5
273
330
A
100
AcDbEntity
  8
0
 62
     7
100
AcDbPolyline
 90
        2
 70
     1
 43
0.0015
 10
3.741249999999999
 20
1.399999999999999
 42
1.0
 10
3.74275
 20
1.399999999999999
 42
1.0
  0
LWPOLYLINE
  5
277
330
A
100
AcDbEntity
  8
0
 62
     7
100
AcDbPolyline
 90
        2
 70
     1
 43
0.0015
 10
3.741249999999999
 20
2.3
 42
1.0
 10
3.74275
 20
2.3
 42
1.0
  0
LWPOLYLINE
  5
27B
330
A
100
AcDbEntity
  8
0
 62
     7
100
AcDbPolyline
 90
        2
 70
     0
 43
0.002
 10
3.608
 20
0.3999999999999999
 10
3.658
 20
1.399999999999999
  0
LWPOLYLINE
  5
27F
330
A
100
AcDbEntity
  8
0
 62
     7
100
AcDbPolyline
 90
        2
 70
     1
 43
0.001
 10
3.607499999999999
 20
0.3999999999999999
 42
1.0
 10
3.6085
 20
0.3999999999999999
 42
1.0
  0
LWPOLYLINE
  5
283
330
A
100
AcDbEntity
  8
0
 62
     7
100
AcDbPolyline
 90
        2
 70
     1
 43
0.001
 10
3.657499999999999
 20
1.399999999999999
 42
1.0
 10
3.6585
 20
1.399999999999999
 42
1.0
  0
LWPOLYLINE
  5
287
330
A
100
AcDbEntity
  8
0
 62
     7
100
AcDbPolyline
 90
        2
 70
     0
 43
0.002
 10
3.658
 20
1.399999999999999
 10
3.658
 20
2.3
  0
LWPOLYLINE
  5
28B
330
A
100
AcDbEntity
  8
0
 62
     7
100
AcDbPolyline
 90
        2
 70
     1
 43
0.001
 10
3.657499999999999
 20
1.399999999999999
 42
1.0
 10
3.6585
 20
1.399999999999999
 42
1.0
  0
LWPOLYLINE
  5
28F
330
A
100
AcDbEntity
  8
0
 62
     7
100
AcDbPolyline
 90
        2
 70
     1
 43
0.001
 10
3.657499999999999
 20
2.3
 42
1.0
 10
3.6585
 20
2.3
 42
1.0
  0
LWPOLYLINE
  5
293
330
A
100
AcDbEntity
  8
0
 62
     7
100
AcDbPolyline
 90
        2
 70
     0
 43
0.002
 10
3.653999999999999
 20
1.399999999999999
 10
3.653999999999999
 20
2.3
  0
LWPOLYLINE
  5
297
330
A
100
AcDbEntity
  8
0
 62
     7
100
AcDbPolyline
 90
        2
 70
     1
 43
0.001
 10
3.6535
 20
1.399999999999999
 42
1.0
 10
3.654499999999999
 20
1.399999999999999
 42
1.0
  0
LWPOLYLINE
  5
29B
330
A
100
AcDbEntity
  8
0
 62
     7
100
AcDbPolyline
 90
        2
 70
     1
 43
0.001
 10
3.6535
 20
2.3
 42
1.0
 10
3.654499999999999
 20
2.3
 42
1.0
  0
LWPOLYLINE
  5
29F
330
A
100
AcDbEntity
  8
0
 62
     7
100
AcDbPolyline
 90
        2
 70
     0
 43
0.002
 10
3.604
 20
0.3999999999999999
 10
3.653999999999999
 20
1.399999999999999
  0
LWPOLYLINE
  5
2A3
330
A
100
AcDbEntity
  8
0
 62
     7
100
AcDbPolyline
 90
        2
 70
     1
 43
0.001
 10
3.6035
 20
0.3999999999999999
 42
1.0
 10
3.604499999999999
 20
0.3999999999999999
 42
1.0
  0
LWPOLYLINE
  5
2A7
330
A
100
AcDbEntity
  8
0
 62
     7
100
AcDbPolyline
 90
        2
 70
     1
 43
0.001
 10
3.6535
 20
1.399999999999999
 42
1.0
 10
3.654499999999999
 20
1.399999999999999
 42
1.0
  0
LWPOLYLINE
  5
2AB
330
A
100
AcDbEntity
  8
0
 62
     7
100
AcDbPolyline
 90
        2
 70
     0
 43
0.002
 10
3.599999999999999
 20
0.3999999999999999
 10
3.65
 20
1.399999999999999
  0
LWPOLYLINE
  5
2AF
330
A
100
AcDbEntity
  8
0
 62
     7
100
AcDbPolyline
 90
        2
 70
     1
 43
0.001
 10
3.599499999999999
 20
0.3999999999999999
 42
1.0
 10
3.6005
 20
0.3999999999999999
 42
1.0
  0
LWPOLYLINE
  5
2B3
330
A
100
AcDbEntity
  8
0
 62
     7
100
AcDbPolyline
 90
        2
 70
     1
 43
0.001
 10
3.649499999999999
 20
1.399999999999999
 42
1.0
 10
3.6505
 20
1.399999999999999
 42
1.0
  0
LWPOLYLINE
  5
2B7
330
A
100
AcDbEntity
  8
0
 62
     7
100
AcDbPolyline
 90
        2
 70
     0
 43
0.002
 10
3.65
 20
1.399999999999999
 10
3.65
 20
2.3
  0
LWPOLYLINE
  5
2BB
330
A
100
AcDbEntity
  8
0
 62
     7
100
AcDbPolyline
 90
        2
 70
     1
 43
0.001
 10
3.649499999999999
 20
1.399999999999999
 42
1.0
 10
3.6505
 20
1.399999999999999
 42
1.0
  0
LWPOLYLINE
  5
2BF
330
A
100
AcDbEntity
  8
0
 62
     7
100
AcDbPolyline
 90
        2
 70
     1
 43
0.001
 10
3.649499999999999
 20
2.3
 42
1.0
 10
3.6505
 20
2.3
 42
1.0
  0
LWPOLYLINE
  5
2C3
330
A
100
AcDbEntity
  8
0
 62
     7
100
AcDbPolyline
 90
        2
 70
     0
 43
0.002
 10
3.645999999999999
 20
1.399999999999999
 10
3.645999999999999
 20
2.3
  0
LWPOLYLINE
  5
2C7
330
A
100
AcDbEntity
  8
0
 62
     7
100
AcDbPolyline
 90
        2
 70
     1
 43
0.001
 10
3.6455
 20
1.399999999999999
 42
1.0
 10
3.646499999999999
 20
1.399999999999999
 42
1.0
  0
LWPOLYLINE
  5
2CB
330
A
100
AcDbEntity
  8
0
 62
     7
100
AcDbPolyline
 90
        2
 70
     1
 43
0.001
 10
3.6455
 20
2.3
 42
1.0
 10
3.646499999999999
 20
2.3
 42
1.0
  0
LWPOLYLINE
  5
2CF
330
A
100
AcDbEntity
  8
0
 62
     7
100
AcDbPolyline
 90
        2
 70
     0
 43
0.002
 10
3.596
 20
0.3999999999999999
 10
3.645999999999999
 20
1.399999999999999
  0
LWPOLYLINE
  5
2D3
330
A
100
AcDbEntity
  8
0
 62
     7
100
AcDbPolyline
 90
        2
 70
     1
 43
0.001
 10
3.5955
 20
0.3999999999999999
 42
1.0
 10
3.596499999999999
 20
0.3999999999999999
 42
1.0
  0
LWPOLYLINE
  5
2D7
330
A
100
AcDbEntity
  8
0
 62
     7
100
AcDbPolyline
 90
        2
 70
     1
 43
0.001
 10
3.6455
 20
1.399999999999999
 42
1.0
 10
3.646499999999999
 20
1.399999999999999
 42
1.0
  0
LWPOLYLINE
  5
2DB
330
A
100
AcDbEntity
  8
0
 62
     7
100
AcDbPolyline
 90
        2
 70
     0
 43
0.002
 10
3.591999999999999
 20
0.3999999999999999
 10
3.642
 20
1.399999999999999
  0
LWPOLYLINE
  5
2DF
330
A
100
AcDbEntity
  8
0
 62
     7
100
AcDbPolyline
 90
        2
 70
     1
 43
0.001
 10
3.591499999999999
 20
0.3999999999999999
 42
1.0
 10
3.5925
 20
0.3999999999999999
 42
1.0
  0
LWPOLYLINE
  5
2E3
330
A
100
AcDbEntity
  8
0
 62
     7
100
AcDbPolyline
 90
        2
 70
     1
 43
0.001
 10
3.641499999999999
 20
1.399999999999999
 42
1.0
 10
3.6425
 20
1.399999999999999
 42
1.0
  0
LWPOLYLINE
  5
2E7
330
A
100
AcDbEntity
  8
0
 62
     7
100
AcDbPolyline
 90
        2
 70
     0
 43
0.002
 10
3.642
 20
1.399999999999999
 10
3.642
 20
2.3
  0
LWPOLYLINE
  5
2EB
330
A
100
AcDbEntity
  8
0
 62
     7
100
AcDbPolyline
 90
        2
 70
     1
 43
0.001
 10
3.641499999999999
 20
1.399999999999999
 42
1.0
 10
3.6425
 20
1.399999999999999
 42
1.0
  0
LWPOLYLINE
  5
2EF
330
A
100
AcDbEntity
  8
0
 62
     7
100
AcDbPolyline
 90
        2
 70
     1
 43
0.001
 10
3.641499999999999
 20
2.3
 42
1.0
 10
3.6425
 20
2.3
 42
1.0
  0
LWPOLYLINE
  5
2F3
330
A
100
AcDbEntity
  8
0
 62
     7
100
AcDbPolyline
 90
        2
 70
     0
 43
0.001
 10
3.549999999999999
 20
1.399999999999999
 10
3.549999999999999
 20
2.3
  0
LWPOLYLINE
  5
2F7
330
A
100
AcDbEntity
  8
0
 62
     7
100
AcDbPolyline
 90
        2
 70
     1
 43
0.0005
 10
3.549749999999999
 20
1.399999999999999
 42
1.0
 10
3.55025
 20
1.399999999999999
 42
1.0
  0
LWPOLYLINE
  5
2FB
330
A
100
AcDbEntity
  8
0
 62
     7
100
AcDbPolyline
 90
        2
 70
     1
 43
0.0005
 10
3.549749999999999
 20
2.3
 42
1.0
 10
3.55025
 20
2.3
 42
1.0
  0
LWPOLYLINE
  5
2FF
330
A
100
AcDbEntity
  8
0
 62
     7
100
AcDbPolyline
 90
        2
 70
     0
 43
0.001
 10
3.5
 20
0.3999999999999999
 10
3.549999999999999
 20
1.399999999999999
  0
LWPOLYLINE
  5
303
330
A
100
AcDbEntity
  8
0
 62
     7
100
AcDbPolyline
 90
        2
 70
     1
 43
0.0005
 10
3.499749999999999
 20
0.3999999999999999
 42
1.0
 10
3.500249999999999
 20
0.3999999999999999
 42
1.0
  0
LWPOLYLINE
  5
307
330
A
100
AcDbEntity
  8
0
 62
     7
100
AcDbPolyline
 90
        2
 70
     1
 43
0.0005
 10
3.549749999999999
 20
1.399999999999999
 42
1.0
 10
3.55025
 20
1.399999999999999
 42
1.0
  0
LWPOLYLINE
  5
30B
330
A
100
AcDbEntity
  8
0
 62
     7
100
AcDbPolyline
 90
        2
 70
     0
 43
0.001
 10
3.497999999999999
 20
0.3999999999999999
 10
3.548
 20
1.399999999999999
  0
LWPOLYLINE
  5
30F
330
A
100
AcDbEntity
  8
0
 62
     7
100
AcDbPolyline
 90
        2
 70
     1
 43
0.0005
 10
3.497749999999999
 20
0.3999999999999999
 42
1.0
 10
3.498249999999999
 20
0.3999999999999999
 42
1.0
  0
LWPOLYLINE
  5
313
330
A
100
AcDbEntity
  8
0
 62
     7
100
AcDbPolyline
 90
        2
 70
     1
 43
0.0005
 10
3.547749999999999
 20
1.399999999999999
 42
1.0
 10
3.54825
 20
1.399999999999999
 42
1.0
  0
LWPOLYLINE
  5
317
330
A
100
AcDbEntity
  8
0
 62
     7
100
AcDbPolyline
 90
        2
 70
     0
 43
0.001
 10
3.548
 20
1.399999999999999
 10
3.548
 20
2.3
  0
LWPOLYLINE
  5
31B
330
A
100
AcDbEntity
  8
0
 62
     7
100
AcDbPolyline
 90
        2
 70
     1
 43
0.0005
 10
3.547749999999999
 20
1.399999999999999
 42
1.0
 10
3.54825
 20
1.399999999999999
 42
1.0
  0
LWPOLYLINE
  5
31F
330
A
100
AcDbEntity
  8
0
 62
     7
100
AcDbPolyline
 90
        2
 70
     1
 43
0.0005
 10
3.547749999999999
 20
2.3
 42
1.0
 10
3.54825
 20
2.3
 42
1.0
  0
LWPOLYLINE
  5
323
330
A
100
AcDbEntity
  8
0
 62
     7
100
AcDbPolyline
 90
        2
 70
     0
 43
0.001
 10
3.545999999999999
 20
1.399999999999999
 10
3.545999999999999
 20
2.3
  0
LWPOLYLINE
  5
327
330
A
100
AcDbEntity
  8
0
 62
     7
100
AcDbPolyline
 90
        2
 70
     1
 43
0.0005
 10
3.545749999999999
 20
1.399999999999999
 42
1.0
 10
3.546249999999999
 20
1.399999999999999
 42
1.0
  0
LWPOLYLINE
  5
32B
330
A
100
AcDbEntity
  8
0
 62
     7
100
AcDbPolyline
 90
        2
 70
     1
 43
0.0005
 10
3.545749999999999
 20
2.3
 42
1.0
 10
3.546249999999999
 20
2.3
 42
1.0
  0
LWPOLYLINE
  5
32F
330
A
100
AcDbEntity
  8
0
 62
     7
100
AcDbPolyline
 90
        2
 70
     0
 43
0.001
 10
3.495999999999999
 20
0.3999999999999999
 10
3.545999999999999
 20
1.399999999999999
  0
LWPOLYLINE
  5
333
330
A
100
AcDbEntity
  8
0
 62
     7
100
AcDbPolyline
 90
        2
 70
     1
 43
0.0005
 10
3.495749999999999
 20
0.3999999999999999
 42
1.0
 10
3.496249999999999
 20
0.3999999999999999
 42
1.0
  0
LWPOLYLINE
  5
337
330
A
100
AcDbEntity
  8
0
 62
     7
100
AcDbPolyline
 90
        2
 70
     1
 43
0.0005
 10
3.545749999999999
 20
1.399999999999999
 42
1.0
 10
3.546249999999999
 20
1.399999999999999
 42
1.0
  0
LWPOLYLINE
  5
33B
330
A
100
AcDbEntity
  8
0
 62
     7
100
AcDbPolyline
 90
        2
 70
     0
 43
0.001
 10
3.543999999999999
 20
1.399999999999999
 10
3.543999999999999
 20
2.3
  0
LWPOLYLINE
  5
33F
330
A
100
AcDbEntity
  8
0
 62
     7
100
AcDbPolyline
 90
        2
 70
     1
 43
0.0005
 10
3.54375
 20
1.399999999999999
 42
1.0
 10
3.544249999999999
 20
1.399999999999999
 42
1.0
  0
LWPOLYLINE
  5
343
330
A
100
AcDbEntity
  8
0
 62
     7
100
AcDbPolyline
 90
        2
 70
     1
 43
0.0005
 10
3.54375
 20
2.3
 42
1.0
 10
3.544249999999999
 20
2.3
 42
1.0
  0
LWPOLYLINE
  5
347
330
A
100
AcDbEntity
  8
0
 62
     7
100
AcDbPolyline
 90
        2
 70
     0
 43
0.001
 10
3.493999999999999
 20
0.3999999999999999
 10
3.543999999999999
 20
1.399999999999999
  0
LWPOLYLINE
  5
34B
330
A
100
AcDbEntity
  8
0
 62
     7
100
AcDbPolyline
 90
        2
 70
     1
 43
0.0005
 10
3.493749999999999
 20
0.3999999999999999
 42
1.0
 10
3.494249999999999
 20
0.3999999999999999
 42
1.0
  0
LWPOLYLINE
  5
34F
330
A
100
AcDbEntity
  8
0
 62
     7
100
AcDbPolyline
 90
        2
 70
     1
 43
0.0005
 10
3.54375
 20
1.399999999999999
 42
1.0
 10
3.544249999999999
 20
1.399999999999999
 42
1.0
  0
LWPOLYLINE
  5
353
330
A
100
AcDbEntity
  8
0
 62
     7
100
AcDbPolyline
 90
        2
 70
     0
 43
0.001
 10
3.491999999999999
 20
0.3999999999999999
 10
3.541999999999999
 20
1.399999999999999
  0
LWPOLYLINE
  5
357
330
A
100
AcDbEntity
  8
0
 62
     7
100
AcDbPolyline
 90
        2
 70
     1
 43
0.0005
 10
3.491749999999999
 20
0.3999999999999999
 42
1.0
 10
3.492249999999999
 20
0.3999999999999999
 42
1.0
  0
LWPOLYLINE
  5
35B
330
A
100
AcDbEntity
  8
0
 62
     7
100
AcDbPolyline
 90
        2
 70
     1
 43
0.0005
 10
3.541749999999999
 20
1.399999999999999
 42
1.0
 10
3.54225
 20
1.399999999999999
 42
1.0
  0
LWPOLYLINE
  5
35F
330
A
100
AcDbEntity
  8
0
 62
     7
100
AcDbPolyline
 90
        2
 70
     0
 43
0.001
 10
3.541999999999999
 20
1.399999999999999
 10
3.541999999999999
 20
2.3
  0
LWPOLYLINE
  5
363
330
A
100
AcDbEntity
  8
0
 62
     7
100
AcDbPolyline
 90
        2
 70
     1
 43
0.0005
 10
3.541749999999999
 20
1.399999999999999
 42
1.0
 10
3.54225
 20
1.399999999999999
 42
1.0
  0
LWPOLYLINE
  5
367
330
A
100
AcDbEntity
  8
0
 62
     7
100
AcDbPolyline
 90
        2
 70
     1
 43
0.0005
 10
3.541749999999999
 20
2.3
 42
1.0
 10
3.54225
 20
2.3
 42
1.0
  0
LWPOLYLINE
  5
36B
330
A
100
AcDbEntity
  8
0
 62
     7
100
AcDbPolyline
 90
        2
 70
     0
 43
0.005
 10
3.942
 20
1.399999999999999
 10
3.942
 20
2.3
  0
LWPOLYLINE
  5
36F
330
A
100
AcDbEntity
  8
0
 62
     7
100
AcDbPolyline
 90
        2
 70
     1
 43
0.0025
 10
3.940749999999999
 20
1.399999999999999
 42
1.0
 10
3.943249999999999
 20
1.399999999999999
 42
1.0
  0
LWPOLYLINE
  5
373
330
A
100
AcDbEntity
  8
0
 62
     7
100
AcDbPolyline
 90
        2
 70
     1
 43
0.0025
 10
3.940749999999999
 20
2.3
 42
1.0
 10
3.943249999999999
 20
2.3
 42
1.0
  0
LWPOLYLINE
  5
377
330
A
100
AcDbEntity
  8
0
 62
     7
100
AcDbPolyline
 90
        2
 70
     0
 43
0.004
 10
3.841999999999999
 20
1.399999999999999
 10
3.841999999999999
 20
2.3
  0
LWPOLYLINE
  5
37B
330
A
100
AcDbEntity
  8
0
 62
     7
100
AcDbPolyline
 90
        2
 70
     1
 43
0.002
 10
3.840999999999999
 20
1.399999999999999
 42
1.0
 10
3.842999999999999
 20
1.399999999999999
 42
1.0
  0
LWPOLYLINE
  5
37F
330
A
100
AcDbEntity
  8
0
 62
     7
100
AcDbPolyline
 90
        2
 70
     1
 43
0.002
 10
3.840999999999999
 20
2.3
 42
1.0
 10
3.842999999999999
 20
2.3
 42
1.0
  0
LWPOLYLINE
  5
383
330
A
100
AcDbEntity
  8
0
 62
     7
100
AcDbPolyline
 90
        2
 70
     0
 43
0.004
 10
3.791999999999999
 20
0.3999999999999999
 10
3.841999999999999
 20
1.399999999999999
  0
LWPOLYLINE
  5
387
330
A
100
AcDbEntity
  8
0
 62
     7
100
AcDbPolyline
 90
        2
 70
     1
 43
0.002
 10
3.790999999999999
 20
0.3999999999999999
 42
1.0
 10
3.793
 20
0.3999999999999999
 42
1.0
  0
LWPOLYLINE
  5
38B
330
A
100
AcDbEntity
  8
0
 62
     7
100
AcDbPolyline
 90
        2
 70
     1
 43
0.002
 10
3.840999999999999
 20
1.399999999999999
 42
1.0
 10
3.842999999999999
 20
1.399999999999999
 42
1.0
  0
LWPOLYLINE
  5
38F
330
A
100
AcDbEntity
  8
0
 62
     7
100
AcDbPolyline
 90
        2
 70
     0
 43
0.004
 10
3.849999999999999
 20
1.399999999999999
 10
3.849999999999999
 20
2.3
  0
LWPOLYLINE
  5
393
330
A
100
AcDbEntity
  8
0
 62
     7
100
AcDbPolyline
 90
        2
 70
     1
 43
0.002
 10
3.849
 20
1.399999999999999
 42
1.0
 10
3.850999999999999
 20
1.399999999999999
 42
1.0
  0
LWPOLYLINE
  5
397
330
A
100
AcDbEntity
  8
0
 62
     7
100
AcDbPolyline
 90
        2
 70
     1
 43
0.002
 10
3.849
 20
2.3
 42
1.0
 10
3.850999999999999
 20
2.3
 42
1.0
  0
LWPOLYLINE
  5
39B
330
A
100
AcDbEntity
  8
0
 62
     7
100
AcDbPolyline
 90
        2
 70
     0
 43
0.004
 10
3.799999999999999
 20
0.3999999999999999
 10
3.849999999999999
 20
1.399999999999999
  0
LWPOLYLINE
  5
39F
330
A
100
AcDbEntity
  8
0
 62
     7
100
AcDbPolyline
 90
        2
 70
     1
 43
0.002
 10
3.798999999999999
 20
0.3999999999999999
 42
1.0
 10
3.801
 20
0.3999999999999999
 42
1.0
  0
LWPOLYLINE
  5
3A3
330
A
100
AcDbEntity
  8
0
 62
     7
100
AcDbPolyline
 90
        2
 70
     1
 43
0.002
 10
3.849
 20
1.399999999999999
 42
1.0
 10
3.850999999999999
 20
1.399999999999999
 42
1.0
  0
LWPOLYLINE
  5
3A7
330
A
100
AcDbEntity
  8
0
 62
     7
100
AcDbPolyline
 90
        2
 70
     0
 43
0.004
 10
3.807999999999999
 20
0.3999999999999999
 10
3.858
 20
1.399999999999999
  0
LWPOLYLINE
  5
3AB
330
A
100
AcDbEntity
  8
0
 62
     7
100
AcDbPolyline
 90
        2
 70
     1
 43
0.002
 10
3.807
 20
0.3999999999999999
 42
1.0
 10
3.809
 20
0.3999999999999999
 42
1.0
  0
LWPOLYLINE
  5
3AF
330
A
100
AcDbEntity
  8
0
 62
     7
100
AcDbPolyline
 90
        2
 70
     1
 43
0.002
 10
3.857
 20
1.399999999999999
 42
1.0
 10
3.858999999999999
 20
1.399999999999999
 42
1.0
  0
LWPOLYLINE
  5
3B3
330
A
100
AcDbEntity
  8
0
 62
     7
100
AcDbPolyline
 90
        2
 70
     0
 43
0.004
 10
3.858
 20
1.399999999999999
 10
3.858
 20
2.3
  0
LWPOLYLINE
  5
3B7
330
A
100
AcDbEntity
  8
0
 62
     7
100
AcDbPolyline
 90
        2
 70
     1
 43
0.002
 10
3.857
 20
1.399999999999999
 42
1.0
 10
3.858999999999999
 20
1.399999999999999
 42
1.0
  0
LWPOLYLINE
  5
3BB
330
A
100
AcDbEntity
  8
0
 62
     7
100
AcDbPolyline
 90
        2
 70
     1
 43
0.002
 10
3.857
 20
2.3
 42
1.0
 10
3.858999999999999
 20
2.3
 42
1.0
  0
LWPOLYLINE
  5
3BF
330
A
100
AcDbEntity
  8
0
 62
     7
100
AcDbPolyline
 90
        2
 70
     0
 43
0.004
 10
3.865999999999999
 20
1.399999999999999
 10
3.865999999999999
 20
2.3
  0
LWPOLYLINE
  5
3C3
330
A
100
AcDbEntity
  8
0
 62
     7
100
AcDbPolyline
 90
        2
 70
     1
 43
0.002
 10
3.865
 20
1.399999999999999
 42
1.0
 10
3.866999999999999
 20
1.399999999999999
 42
1.0
  0
LWPOLYLINE
  5
3C7
330
A
100
AcDbEntity
  8
0
 62
     7
100
AcDbPolyline
 90
        2
 70
     1
 43
0.002
 10
3.865
 20
2.3
 42
1.0
 10
3.866999999999999
 20
2.3
 42
1.0
  0
LWPOLYLINE
  5
3CB
330
A
100
AcDbEntity
  8
0
 62
     7
100
AcDbPolyline
 90
        2
 70
     0
 43
0.004
 10
3.815999999999999
 20
0.3999999999999999
 10
3.865999999999999
 20
1.399999999999999
  0
LWPOLYLINE
  5
3CF
330
A
100
AcDbEntity
  8
0
 62
     7
100
AcDbPolyline
 90
        2
 70
     1
 43
0.002
 10
3.815
 20
0.3999999999999999
 42
1.0
 10
3.817
 20
0.3999999999999999
 42
1.0
  0
LWPOLYLINE
  5
3D3
330
A
100
AcDbEntity
  8
0
 62
     7
100
AcDbPolyline
 90
        2
 70
     1
 43
0.002
 10
3.865
 20
1.399999999999999
 42
1.0
 10
3.866999999999999
 20
1.399999999999999
 42
1.0
  0
LWPOLYLINE
  5
3D7
330
A
100
AcDbEntity
  8
0
 62
     7
100
AcDbPolyline
 90
        2
 70
     0
 43
0.004
 10
3.823999999999999
 20
0.3999999999999999
 10
3.873999999999999
 20
1.399999999999999
  0
LWPOLYLINE
  5
3DB
330
A
100
AcDbEntity
  8
0
 62
     7
100
AcDbPolyline
 90
        2
 70
     1
 43
0.002
 10
3.823
 20
0.3999999999999999
 42
1.0
 10
3.825
 20
0.3999999999999999
 42
1.0
  0
LWPOLYLINE
  5
3DF
330
A
100
AcDbEntity
  8
0
 62
     7
100
AcDbPolyline
 90
        2
 70
     1
 43
0.002
 10
3.873
 20
1.399999999999999
 42
1.0
 10
3.875
 20
1.399999999999999
 42
1.0
  0
LWPOLYLINE
  5
3E3
330
A
100
AcDbEntity
  8
0
 62
     7
100
AcDbPolyline
 90
        2
 70
     0
 43
0.004
 10
3.873999999999999
 20
1.399999999999999
 10
3.873999999999999
 20
2.3
  0
LWPOLYLINE
  5
3E7
330
A
100
AcDbEntity
  8
0
 62
     7
100
AcDbPolyline
 90
        2
 70
     1
 43
0.002
 10
3.873
 20
1.399999999999999
 42
1.0
 10
3.875
 20
1.399999999999999
 42
1.0
  0
LWPOLYLINE
  5
3EB
330
A
100
AcDbEntity
  8
0
 62
     7
100
AcDbPolyline
 90
        2
 70
     1
 43
0.002
 10
3.873
 20
2.3
 42
1.0
 10
3.875
 20
2.3
 42
1.0
  0
LWPOLYLINE
  5
3EF
330
A
100
AcDbEntity
  8
0
 62
     7
100
AcDbPolyline
 90
        2
 70
     0
 43
0.005
 10
3.892
 20
0.3999999999999999
 10
3.942
 20
1.399999999999999
  0
LWPOLYLINE
  5
3F3
330
A
100
AcDbEntity
  8
0
 62
     7
100
AcDbPolyline
 90
        2
 70
     1
 43
0.0025
 10
3.890749999999999
 20
0.3999999999999999
 42
1.0
 10
3.89325
 20
0.3999999999999999
 42
1.0
  0
LWPOLYLINE
  5
3F7
330
A
100
AcDbEntity
  8
0
 62
     7
100
AcDbPolyline
 90
        2
 70
     1
 43
0.0025
 10
3.940749999999999
 20
1.399999999999999
 42
1.0
 10
3.943249999999999
 20
1.399999999999999
 42
1.0
  0
LWPOLYLINE
  5
3FB
330
A
100
AcDbEntity
  8
0
 62
     7
100
AcDbPolyline
 90
        2
 70
     0
 43
0.005
 10
3.951999999999999
 20
1.399999999999999
 10
3.951999999999999
 20
2.3
  0
LWPOLYLINE
  5
3FF
330
A
100
AcDbEntity
  8
0
 62
     7
100
AcDbPolyline
 90
        2
 70
     1
 43
0.0025
 10
3.95075
 20
1.399999999999999
 42
1.0
 10
3.95325
 20
1.399999999999999
 42
1.0
  0
LWPOLYLINE
  5
403
330
A
100
AcDbEntity
  8
0
 62
     7
100
AcDbPolyline
 90
        2
 70
     1
 43
0.0025
 10
3.95075
 20
2.3
 42
1.0
 10
3.95325
 20
2.3
 42
1.0
  0
LWPOLYLINE
  5
407
330
A
100
AcDbEntity
  8
0
 62
     7
100
AcDbPolyline
 90
        2
 70
     0
 43
0.005
 10
3.902
 20
0.3999999999999999
 10
3.951999999999999
 20
1.399999999999999
  0
LWPOLYLINE
  5
40B
330
A
100
AcDbEntity
  8
0
 62
     7
100
AcDbPolyline
 90
        2
 70
     1
 43
0.0025
 10
3.90075
 20
0.3999999999999999
 42
1.0
 10
3.903249999999999
 20
0.3999999999999999
 42
1.0
  0
LWPOLYLINE
  5
40F
330
A
100
AcDbEntity
  8
0
 62
     7
100
AcDbPolyline
 90
        2
 70
     1
 43
0.0025
 10
3.95075
 20
1.399999999999999
 42
1.0
 10
3.95325
 20
1.399999999999999
 42
1.0
  0
LWPOLYLINE
  5
413
330
A
100
AcDbEntity
  8
0
 62
     7
100
AcDbPolyline
 90
        2
 70
     0
 43
0.005
 10
3.911999999999999
 20
0.3999999999999999
 10
3.961999999999999
 20
1.399999999999999
  0
LWPOLYLINE
  5
417
330
A
100
AcDbEntity
  8
0
 62
     7
100
AcDbPolyline
 90
        2
 70
     1
 43
0.0025
 10
3.91075
 20
0.3999999999999999
 42
1.0
 10
3.913249999999999
 20
0.3999999999999999
 42
1.0
  0
LWPOLYLINE
  5
41B
330
A
100
AcDbEntity
  8
0
 62
     7
100
AcDbPolyline
 90
        2
 70
     1
 43
0.0025
 10
3.960749999999999
 20
1.399999999999999
 42
1.0
 10
3.96325
 20
1.399999999999999
 42
1.0
  0
LWPOLYLINE
  5
41F
330
A
100
AcDbEntity
  8
0
 62
     7
100
AcDbPolyline
 90
        2
 70
     0
 43
0.005
 10
3.961999999999999
 20
1.399999999999999
 10
3.961999999999999
 20
2.3
  0
LWPOLYLINE
  5
423
330
A
100
AcDbEntity
  8
0
 62
     7
100
AcDbPolyline
 90
        2
 70
     1
 43
0.0025
 10
3.960749999999999
 20
1.399999999999999
 42
1.0
 10
3.96325
 20
1.399999999999999
 42
1.0
  0
LWPOLYLINE
  5
427
330
A
100
AcDbEntity
  8
0
 62
     7
100
AcDbPolyline
 90
        2
 70
     1
 43
0.0025
 10
3.960749999999999
 20
2.3
 42
1.0
 10
3.96325
 20
2.3
 42
1.0
  0
LWPOLYLINE
  5
42B
330
A
100
AcDbEntity
  8
0
 62
     7
100
AcDbPolyline
 90
        2
 70
     0
 43
0.005
 10
3.972
 20
1.399999999999999
 10
3.972
 20
2.3
  0
LWPOLYLINE
  5
42F
330
A
100
AcDbEntity
  8
0
 62
     7
100
AcDbPolyline
 90
        2
 70
     1
 43
0.0025
 10
3.970749999999999
 20
1.399999999999999
 42
1.0
 10
3.97325
 20
1.399999999999999
 42
1.0
  0
LWPOLYLINE
  5
433
330
A
100
AcDbEntity
  8
0
 62
     7
100
AcDbPolyline
 90
        2
 70
     1
 43
0.0025
 10
3.970749999999999
 20
2.3
 42
1.0
 10
3.97325
 20
2.3
 42
1.0
  0
LWPOLYLINE
  5
437
330
A
100
AcDbEntity
  8
0
 62
     7
100
AcDbPolyline
 90
        2
 70
     0
 43
0.005
 10
3.921999999999999
 20
0.3999999999999999
 10
3.972
 20
1.399999999999999
  0
LWPOLYLINE
  5
43B
330
A
100
AcDbEntity
  8
0
 62
     7
100
AcDbPolyline
 90
        2
 70
     1
 43
0.0025
 10
3.920749999999999
 20
0.3999999999999999
 42
1.0
 10
3.92325
 20
0.3999999999999999
 42
1.0
  0
LWPOLYLINE
  5
43F
330
A
100
AcDbEntity
  8
0
 62
     7
100
AcDbPolyline
 90
        2
 70
     1
 43
0.0025
 10
3.970749999999999
 20
1.399999999999999
 42
1.0
 10
3.97325
 20
1.399999999999999
 42
1.0
  0
LWPOLYLINE
  5
443
330
A
100
AcDbEntity
  8
0
 62
     7
100
AcDbPolyline
 90
        2
 70
     0
 43
0.005
 10
3.932
 20
0.3999999999999999
 10
3.982
 20
1.399999999999999
  0
LWPOLYLINE
  5
447
330
A
100
AcDbEntity
  8
0
 62
     7
100
AcDbPolyline
 90
        2
 70
     1
 43
0.0025
 10
3.930749999999999
 20
0.3999999999999999
 42
1.0
 10
3.93325
 20
0.3999999999999999
 42
1.0
  0
LWPOLYLINE
  5
44B
330
A
100
AcDbEntity
  8
0
 62
     7
100
AcDbPolyline
 90
        2
 70
     1
 43
0.0025
 10
3.98075
 20
1.399999999999999
 42
1.0
 10
3.983249999999999
 20
1.399999999999999
 42
1.0
  0
LWPOLYLINE
  5
44F
330
A
100
AcDbEntity
  8
0
 62
     7
100
AcDbPolyline
 90
        2
 70
     0
 43
0.005
 10
3.982
 20
1.399999999999999
 10
3.982
 20
2.3
  0
LWPOLYLINE
  5
453
330
A
100
AcDbEntity
  8
0
 62
     7
100
AcDbPolyline
 90
        2
 70
     1
 43
0.0025
 10
3.98075
 20
1.399999999999999
 42
1.0
 10
3.983249999999999
 20
1.399999999999999
 42
1.0
  0
LWPOLYLINE
  5
457
330
A
100
AcDbEntity
  8
0
 62
     7
100
AcDbPolyline
 90
        2
 70
     1
 43
0.0025
 10
3.98075
 20
2.3
 42
1.0
 10
3.983249999999999
 20
2.3
 42
1.0
  0
LWPOLYLINE
  5
45B
330
A
100
AcDbEntity
  8
0
 62
     7
100
AcDbPolyline
 90
        2
 70
     0
 43
0.01
 10
4.491999999999999
 20
0.3999999999999999
 10
4.541999999999999
 20
1.399999999999999
  0
LWPOLYLINE
  5
45F
330
A
100
AcDbEntity
  8
0
 62
     7
100
AcDbPolyline
 90
        2
 70
     1
 43
0.005
 10
4.4895
 20
0.3999999999999999
 42
1.0
 10
4.4945
 20
0.3999999999999999
 42
1.0
  0
LWPOLYLINE
  5
463
330
A
100
AcDbEntity
  8
0
 62
     7
100
AcDbPolyline
 90
        2
 70
     1
 43
0.005
 10
4.5395
 20
1.399999999999999
 42
1.0
 10
4.5445
 20
1.399999999999999
 42
1.0
  0
LWPOLYLINE
  5
467
330
A
100
AcDbEntity
  8
0
 62
     7
100
AcDbPolyline
 90
        2
 70
     0
 43
0.01
 10
4.621999999999999
 20
1.399999999999999
 10
4.621999999999999
 20
2.3
  0
LWPOLYLINE
  5
46B
330
A
100
AcDbEntity
  8
0
 62
     7
100
AcDbPolyline
 90
        2
 70
     1
 43
0.005
 10
4.6195
 20
1.399999999999999
 42
1.0
 10
4.6245
 20
1.399999999999999
 42
1.0
  0
LWPOLYLINE
  5
46F
330
A
100
AcDbEntity
  8
0
 62
     7
100
AcDbPolyline
 90
        2
 70
     1
 43
0.005
 10
4.6195
 20
2.3
 42
1.0
 10
4.6245
 20
2.3
 42
1.0
  0
LWPOLYLINE
  5
473
330
A
100
AcDbEntity
  8
0
 62
     7
100
AcDbPolyline
 90
        2
 70
     0
 43
0.01
 10
4.572
 20
0.3999999999999999
 10
4.621999999999999
 20
1.399999999999999
  0
LWPOLYLINE
  5
477
330
A
100
AcDbEntity
  8
0
 62
     7
100
AcDbPolyline
 90
        2
 70
     1
 43
0.005
 10
4.5695
 20
0.3999999999999999
 42
1.0
 10
4.5745
 20
0.3999999999999999
 42
1.0
  0
LWPOLYLINE
  5
47B
330
A
100
AcDbEntity
  8
0
 62
     7
100
AcDbPolyline
 90
        2
 70
     1
 43
0.005
 10
4.6195
 20
1.399999999999999
 42
1.0
 10
4.6245
 20
1.399999999999999
 42
1.0
  0
LWPOLYLINE
  5
47F
330
A
100
AcDbEntity
  8
0
 62
     7
100
AcDbPolyline
 90
        2
 70
     0
 43
0.01
 10
4.552
 20
0.3999999999999999
 10
4.602
 20
1.399999999999999
  0
LWPOLYLINE
  5
483
330
A
100
AcDbEntity
  8
0
 62
     7
100
AcDbPolyline
 90
        2
 70
     1
 43
0.005
 10
4.5495
 20
0.3999999999999999
 42
1.0
 10
4.554499999999999
 20
0.3999999999999999
 42
1.0
  0
LWPOLYLINE
  5
487
330
A
100
AcDbEntity
  8
0
 62
     7
100
AcDbPolyline
 90
        2
 70
     1
 43
0.005
 10
4.599499999999999
 20
1.399999999999999
 42
1.0
 10
4.604499999999999
 20
1.399999999999999
 42
1.0
  0
LWPOLYLINE
  5
48B
330
A
100
AcDbEntity
  8
0
 62
     7
100
AcDbPolyline
 90
        2
 70
     0
 43
0.01
 10
4.602
 20
1.399999999999999
 10
4.602
 20
2.3
  0
LWPOLYLINE
  5
48F
330
A
100
AcDbEntity
  8
0
 62
     7
100
AcDbPolyline
 90
        2
 70
     1
 43
0.005
 10
4.599499999999999
 20
1.399999999999999
 42
1.0
 10
4.604499999999999
 20
1.399999999999999
 42
1.0
  0
LWPOLYLINE
  5
493
330
A
100
AcDbEntity
  8
0
 62
     7
100
AcDbPolyline
 90
        2
 70
     1
 43
0.005
 10
4.599499999999999
 20
2.3
 42
1.0
 10
4.604499999999999
 20
2.3
 42
1.0
  0
LWPOLYLINE
  5
497
330
A
100
AcDbEntity
  8
0
 62
     7
100
AcDbPolyline
 90
        2
 70
     0
 43
0.01
 10
4.581999999999999
 20
1.399999999999999
 10
4.581999999999999
 20
2.3
  0
LWPOLYLINE
  5
49B
330
A
100
AcDbEntity
  8
0
 62
     7
100
AcDbPolyline
 90
        2
 70
     1
 43
0.005
 10
4.5795
 20
1.399999999999999
 42
1.0
 10
4.5845
 20
1.399999999999999
 42
1.0
  0
LWPOLYLINE
  5
49F
330
A
100
AcDbEntity
  8
0
 62
     7
100
AcDbPolyline
 90
        2
 70
     1
 43
0.005
 10
4.5795
 20
2.3
 42
1.0
 10
4.5845
 20
2.3
 42
1.0
  0
LWPOLYLINE
  5
4A3
330
A
100
AcDbEntity
  8
0
 62
     7
100
AcDbPolyline
 90
        2
 70
     0
 43
0.01
 10
4.532
 20
0.3999999999999999
 10
4.581999999999999
 20
1.399999999999999
  0
LWPOLYLINE
  5
4A7
330
A
100
AcDbEntity
  8
0
 62
     7
100
AcDbPolyline
 90
        2
 70
     1
 43
0.005
 10
4.5295
 20
0.3999999999999999
 42
1.0
 10
4.5345
 20
0.3999999999999999
 42
1.0
  0
LWPOLYLINE
  5
4AB
330
A
100
AcDbEntity
  8
0
 62
     7
100
AcDbPolyline
 90
        2
 70
     1
 43
0.005
 10
4.5795
 20
1.399999999999999
 42
1.0
 10
4.5845
 20
1.399999999999999
 42
1.0
  0
LWPOLYLINE
  5
4AF
330
A
100
AcDbEntity
  8
0
 62
     7
100
AcDbPolyline
 90
        2
 70
     0
 43
0.01
 10
4.512
 20
0.3999999999999999
 10
4.562
 20
1.399999999999999
  0
LWPOLYLINE
  5
4B3
330
A
100
AcDbEntity
  8
0
 62
     7
100
AcDbPolyline
 90
        2
 70
     1
 43
0.005
 10
4.5095
 20
0.3999999999999999
 42
1.0
 10
4.514499999999999
 20
0.3999999999999999
 42
1.0
  0
LWPOLYLINE
  5
4B7
330
A
100
AcDbEntity
  8
0
 62
     7
100
AcDbPolyline
 90
        2
 70
     1
 43
0.005
 10
4.559499999999999
 20
1.399999999999999
 42
1.0
 10
4.564499999999999
 20
1.399999999999999
 42
1.0
  0
LWPOLYLINE
  5
4BB
330
A
100
AcDbEntity
  8
0
 62
     7
100
AcDbPolyline
 90
        2
 70
     0
 43
0.01
 10
4.562
 20
1.399999999999999
 10
4.562
 20
2.3
  0
LWPOLYLINE
  5
4BF
330
A
100
AcDbEntity
  8
0
 62
     7
100
AcDbPolyline
 90
        2
 70
     1
 43
0.005
 10
4.559499999999999
 20
1.399999999999999
 42
1.0
 10
4.564499999999999
 20
1.399999999999999
 42
1.0
  0
LWPOLYLINE
  5
4C3
330
A
100
AcDbEntity
  8
0
 62
     7
100
AcDbPolyline
 90
        2
 70
     1
 43
0.005
 10
4.559499999999999
 20
2.3
 42
1.0
 10
4.564499999999999
 20
2.3
 42
1.0
  0
LWPOLYLINE
  5
4C7
330
A
100
AcDbEntity
  8
0
 62
     7
100
AcDbPolyline
 90
        2
 70
     0
 43
0.01
 10
4.541999999999999
 20
1.399999999999999
 10
4.541999999999999
 20
2.3
  0
LWPOLYLINE
  5
4CB
330
A
100
AcDbEntity
  8
0
 62
     7
100
AcDbPolyline
 90
        2
 70
     1
 43
0.005
 10
4.5395
 20
1.399999999999999
 42
1.0
 10
4.5445
 20
1.399999999999999
 42
1.0
  0
LWPOLYLINE
  5
4CF
330
A
100
AcDbEntity
  8
0
 62
     7
100
AcDbPolyline
 90
        2
 70
     1
 43
0.005
 10
4.5395
 20
2.3
 42
1.0
 10
4.5445
 20
2.3
 42
1.0
  0
LWPOLYLINE
  5
4D3
330
A
100
AcDbEntity
  8
0
 62
     7
100
AcDbPolyline
 90
        2
 70
     0
 43
0.009
 10
2.399999999999999
 20
1.271999999999998
 10
3.399999999999999
 20
1.223999999999998
  0
LWPOLYLINE
  5
4D7
330
A
100
AcDbEntity
  8
0
 62
     7
100
AcDbPolyline
 90
        2
 70
     1
 43
0.0045
 10
2.397749999999999
 20
1.271999999999998
 42
1.0
 10
2.402249999999999
 20
1.271999999999998
 42
1.0
  0
LWPOLYLINE
  5
4DB
330
A
100
AcDbEntity
  8
0
 62
     7
100
AcDbPolyline
 90
        2
 70
     1
 43
0.0045
 10
3.397749999999999
 20
1.223999999999998
 42
1.0
 10
3.402249999999999
 20
1.223999999999998
 42
1.0
  0
LWPOLYLINE
  5
4DF
330
A
100
AcDbEntity
  8
0
 62
     7
100
AcDbPolyline
 90
        2
 70
     0
 43
0.009
 10
1.5
 20
1.271999999999998
 10
2.399999999999999
 20
1.271999999999998
  0
LWPOLYLINE
  5
4E3
330
A
100
AcDbEntity
  8
0
 62
     7
100
AcDbPolyline
 90
        2
 70
     1
 43
0.0045
 10
1.497749999999999
 20
1.271999999999998
 42
1.0
 10
1.50225
 20
1.271999999999998
 42
1.0
  0
LWPOLYLINE
  5
4E7
330
A
100
AcDbEntity
  8
0
 62
     7
100
AcDbPolyline
 90
        2
 70
     1
 43
0.0045
 10
2.397749999999999
 20
1.271999999999998
 42
1.0
 10
2.402249999999999
 20
1.271999999999998
 42
1.0
  0
LWPOLYLINE
  5
4EB
330
A
100
AcDbEntity
  8
0
 62
     7
100
AcDbPolyline
 90
        2
 70
     0
 43
0.009
 10
1.5
 20
1.253999999999999
 10
2.399999999999999
 20
1.253999999999999
  0
LWPOLYLINE
  5
4EF
330
A
100
AcDbEntity
  8
0
 62
     7
100
AcDbPolyline
 90
        2
 70
     1
 43
0.0045
 10
1.497749999999999
 20
1.253999999999999
 42
1.0
 10
1.50225
 20
1.253999999999999
 42
1.0
  0
LWPOLYLINE
  5
4F3
330
A
100
AcDbEntity
  8
0
 62
     7
100
AcDbPolyline
 90
        2
 70
     1
 43
0.0045
 10
2.397749999999999
 20
1.253999999999999
 42
1.0
 10
2.402249999999999
 20
1.253999999999999
 42
1.0
  0
LWPOLYLINE
  5
4F7
330
A
100
AcDbEntity
  8
0
 62
     7
100
AcDbPolyline
 90
        2
 70
     0
 43
0.009
 10
2.399999999999999
 20
1.253999999999999
 10
3.399999999999999
 20
1.203999999999999
  0
LWPOLYLINE
  5
4FB
330
A
100
AcDbEntity
  8
0
 62
     7
100
AcDbPolyline
 90
        2
 70
     1
 43
0.0045
 10
2.397749999999999
 20
1.253999999999999
 42
1.0
 10
2.402249999999999
 20
1.253999999999999
 42
1.0
  0
LWPOLYLINE
  5
4FF
330
A
100
AcDbEntity
  8
0
 62
     7
100
AcDbPolyline
 90
        2
 70
     1
 43
0.0045
 10
3.397749999999999
 20
1.203999999999999
 42
1.0
 10
3.402249999999999
 20
1.203999999999999
 42
1.0
  0
LWPOLYLINE
  5
503
330
A
100
AcDbEntity
  8
0
 62
     7
100
AcDbPolyline
 90
        2
 70
     0
 43
0.009
 10
2.399999999999999
 20
1.235999999999999
 10
3.399999999999999
 20
1.185999999999999
  0
LWPOLYLINE
  5
507
330
A
100
AcDbEntity
  8
0
 62
     7
100
AcDbPolyline
 90
        2
 70
     1
 43
0.0045
 10
2.397749999999999
 20
1.235999999999999
 42
1.0
 10
2.402249999999999
 20
1.235999999999999
 42
1.0
  0
LWPOLYLINE
  5
50B
330
A
100
AcDbEntity
  8
0
 62
     7
100
AcDbPolyline
 90
        2
 70
     1
 43
0.0045
 10
3.397749999999999
 20
1.185999999999999
 42
1.0
 10
3.402249999999999
 20
1.185999999999999
 42
1.0
  0
LWPOLYLINE
  5
50F
330
A
100
AcDbEntity
  8
0
 62
     7
100
AcDbPolyline
 90
        2
 70
     0
 43
0.009
 10
1.5
 20
1.235999999999999
 10
2.399999999999999
 20
1.235999999999999
  0
LWPOLYLINE
  5
513
330
A
100
AcDbEntity
  8
0
 62
     7
100
AcDbPolyline
 90
        2
 70
     1
 43
0.0045
 10
1.497749999999999
 20
1.235999999999999
 42
1.0
 10
1.50225
 20
1.235999999999999
 42
1.0
  0
LWPOLYLINE
  5
517
330
A
100
AcDbEntity
  8
0
 62
     7
100
AcDbPolyline
 90
        2
 70
     1
 43
0.0045
 10
2.397749999999999
 20
1.235999999999999
 42
1.0
 10
2.402249999999999
 20
1.235999999999999
 42
1.0
  0
LWPOLYLINE
  5
51B
330
A
100
AcDbEntity
  8
0
 62
     7
100
AcDbPolyline
 90
        2
 70
     0
 43
0.009
 10
1.5
 20
1.217999999999999
 10
2.399999999999999
 20
1.217999999999999
  0
LWPOLYLINE
  5
51F
330
A
100
AcDbEntity
  8
0
 62
     7
100
AcDbPolyline
 90
        2
 70
     1
 43
0.0045
 10
1.497749999999999
 20
1.217999999999999
 42
1.0
 10
1.50225
 20
1.217999999999999
 42
1.0
  0
LWPOLYLINE
  5
523
330
A
100
AcDbEntity
  8
0
 62
     7
100
AcDbPolyline
 90
        2
 70
     1
 43
0.0045
 10
2.397749999999999
 20
1.217999999999999
 42
1.0
 10
2.402249999999999
 20
1.217999999999999
 42
1.0
  0
LWPOLYLINE
  5
527
330
A
100
AcDbEntity
  8
0
 62
     7
100
AcDbPolyline
 90
        2
 70
     0
 43
0.009
 10
2.399999999999999
 20
1.217999999999999
 10
3.399999999999999
 20
1.167999999999999
  0
LWPOLYLINE
  5
52B
330
A
100
AcDbEntity
  8
0
 62
     7
100
AcDbPolyline
 90
        2
 70
     1
 43
0.0045
 10
2.397749999999999
 20
1.217999999999999
 42
1.0
 10
2.402249999999999
 20
1.217999999999999
 42
1.0
  0
LWPOLYLINE
  5
52F
330
A
100
AcDbEntity
  8
0
 62
     7
100
AcDbPolyline
 90
        2
 70
     1
 43
0.0045
 10
3.397749999999999
 20
1.167999999999999
 42
1.0
 10
3.402249999999999
 20
1.167999999999999
 42
1.0
  0
LWPOLYLINE
  5
533
330
A
100
AcDbEntity
  8
0
 62
     7
100
AcDbPolyline
 90
        2
 70
     0
 43
0.009
 10
2.399999999999999
 20
1.199999999999999
 10
3.399999999999999
 20
1.149999999999999
  0
LWPOLYLINE
  5
537
330
A
100
AcDbEntity
  8
0
 62
     7
100
AcDbPolyline
 90
        2
 70
     1
 43
0.0045
 10
2.397749999999999
 20
1.199999999999999
 42
1.0
 10
2.402249999999999
 20
1.199999999999999
 42
1.0
  0
LWPOLYLINE
  5
53B
330
A
100
AcDbEntity
  8
0
 62
     7
100
AcDbPolyline
 90
        2
 70
     1
 43
0.0045
 10
3.397749999999999
 20
1.149999999999999
 42
1.0
 10
3.402249999999999
 20
1.149999999999999
 42
1.0
  0
LWPOLYLINE
  5
53F
330
A
100
AcDbEntity
  8
0
 62
     7
100
AcDbPolyline
 90
        2
 70
     0
 43
0.009
 10
1.5
 20
1.199999999999999
 10
2.399999999999999
 20
1.199999999999999
  0
LWPOLYLINE
  5
543
330
A
100
AcDbEntity
  8
0
 62
     7
100
AcDbPolyline
 90
        2
 70
     1
 43
0.0045
 10
1.497749999999999
 20
1.199999999999999
 42
1.0
 10
1.50225
 20
1.199999999999999
 42
1.0
  0
LWPOLYLINE
  5
547
330
A
100
AcDbEntity
  8
0
 62
     7
100
AcDbPolyline
 90
        2
 70
     1
 43
0.0045
 10
2.397749999999999
 20
1.199999999999999
 42
1.0
 10
2.402249999999999
 20
1.199999999999999
 42
1.0
  0
LWPOLYLINE
  5
54B
330
A
100
AcDbEntity
  8
0
 62
     7
100
AcDbPolyline
 90
        2
 70
     0
 43
0.008
 10
2.399999999999999
 20
1.163999999999999
 10
3.399999999999999
 20
1.113999999999999
  0
LWPOLYLINE
  5
54F
330
A
100
AcDbEntity
  8
0
 62
     7
100
AcDbPolyline
 90
        2
 70
     1
 43
0.004
 10
2.398
 20
1.163999999999999
 42
1.0
 10
2.401999999999999
 20
1.163999999999999
 42
1.0
  0
LWPOLYLINE
  5
553
330
A
100
AcDbEntity
  8
0
 62
     7
100
AcDbPolyline
 90
        2
 70
     1
 43
0.004
 10
3.398
 20
1.113999999999999
 42
1.0
 10
3.401999999999999
 20
1.113999999999999
 42
1.0
  0
LWPOLYLINE
  5
557
330
A
100
AcDbEntity
  8
0
 62
     7
100
AcDbPolyline
 90
        2
 70
     0
 43
0.008
 10
1.5
 20
1.163999999999999
 10
2.399999999999999
 20
1.163999999999999
  0
LWPOLYLINE
  5
55B
330
A
100
AcDbEntity
  8
0
 62
     7
100
AcDbPolyline
 90
        2
 70
     1
 43
0.004
 10
1.497999999999999
 20
1.163999999999999
 42
1.0
 10
1.502
 20
1.163999999999999
 42
1.0
  0
LWPOLYLINE
  5
55F
330
A
100
AcDbEntity
  8
0
 62
     7
100
AcDbPolyline
 90
        2
 70
     1
 43
0.004
 10
2.398
 20
1.163999999999999
 42
1.0
 10
2.401999999999999
 20
1.163999999999999
 42
1.0
  0
LWPOLYLINE
  5
563
330
A
100
AcDbEntity
  8
0
 62
     7
100
AcDbPolyline
 90
        2
 70
     0
 43
0.008
 10
1.5
 20
1.147999999999999
 10
2.399999999999999
 20
1.147999999999999
  0
LWPOLYLINE
  5
567
330
A
100
AcDbEntity
  8
0
 62
     7
100
AcDbPolyline
 90
        2
 70
     1
 43
0.004
 10
1.497999999999999
 20
1.147999999999999
 42
1.0
 10
1.502
 20
1.147999999999999
 42
1.0
  0
LWPOLYLINE
  5
56B
330
A
100
AcDbEntity
  8
0
 62
     7
100
AcDbPolyline
 90
        2
 70
     1
 43
0.004
 10
2.398
 20
1.147999999999999
 42
1.0
 10
2.401999999999999
 20
1.147999999999999
 42
1.0
  0
LWPOLYLINE
  5
56F
330
A
100
AcDbEntity
  8
0
 62
     7
100
AcDbPolyline
 90
        2
 70
     0
 43
0.008
 10
2.399999999999999
 20
1.147999999999999
 10
3.399999999999999
 20
1.097999999999999
  0
LWPOLYLINE
  5
573
330
A
100
AcDbEntity
  8
0
 62
     7
100
AcDbPolyline
 90
        2
 70
     1
 43
0.004
 10
2.398
 20
1.147999999999999
 42
1.0
 10
2.401999999999999
 20
1.147999999999999
 42
1.0
  0
LWPOLYLINE
  5
577
330
A
100
AcDbEntity
  8
0
 62
     7
100
AcDbPolyline
 90
        2
 70
     1
 43
0.004
 10
3.398
 20
1.097999999999999
 42
1.0
 10
3.401999999999999
 20
1.097999999999999
 42
1.0
  0
LWPOLYLINE
  5
57B
330
A
100
AcDbEntity
  8
0
 62
     7
100
AcDbPolyline
 90
        2
 70
     0
 43
0.008
 10
2.399999999999999
 20
1.131999999999999
 10
3.399999999999999
 20
1.081999999999999
  0
LWPOLYLINE
  5
57F
330
A
100
AcDbEntity
  8
0
 62
     7
100
AcDbPolyline
 90
        2
 70
     1
 43
0.004
 10
2.398
 20
1.131999999999999
 42
1.0
 10
2.401999999999999
 20
1.131999999999999
 42
1.0
  0
LWPOLYLINE
  5
583
330
A
100
AcDbEntity
  8
0
 62
     7
100
AcDbPolyline
 90
        2
 70
     1
 43
0.004
 10
3.398
 20
1.081999999999999
 42
1.0
 10
3.401999999999999
 20
1.081999999999999
 42
1.0
  0
LWPOLYLINE
  5
587
330
A
100
AcDbEntity
  8
0
 62
     7
100
AcDbPolyline
 90
        2
 70
     0
 43
0.008
 10
1.5
 20
1.131999999999999
 10
2.399999999999999
 20
1.131999999999999
  0
LWPOLYLINE
  5
58B
330
A
100
AcDbEntity
  8
0
 62
     7
100
AcDbPolyline
 90
        2
 70
     1
 43
0.004
 10
1.497999999999999
 20
1.131999999999999
 42
1.0
 10
1.502
 20
1.131999999999999
 42
1.0
  0
LWPOLYLINE
  5
58F
330
A
100
AcDbEntity
  8
0
 62
     7
100
AcDbPolyline
 90
        2
 70
     1
 43
0.004
 10
2.398
 20
1.131999999999999
 42
1.0
 10
2.401999999999999
 20
1.131999999999999
 42
1.0
  0
LWPOLYLINE
  5
593
330
A
100
AcDbEntity
  8
0
 62
     7
100
AcDbPolyline
 90
        2
 70
     0
 43
0.008
 10
1.5
 20
1.115999999999999
 10
2.399999999999999
 20
1.115999999999999
  0
LWPOLYLINE
  5
597
330
A
100
AcDbEntity
  8
0
 62
     7
100
AcDbPolyline
 90
        2
 70
     1
 43
0.004
 10
1.497999999999999
 20
1.115999999999999
 42
1.0
 10
1.502
 20
1.115999999999999
 42
1.0
  0
LWPOLYLINE
  5
59B
330
A
100
AcDbEntity
  8
0
 62
     7
100
AcDbPolyline
 90
        2
 70
     1
 43
0.004
 10
2.398
 20
1.115999999999999
 42
1.0
 10
2.401999999999999
 20
1.115999999999999
 42
1.0
  0
LWPOLYLINE
  5
59F
330
A
100
AcDbEntity
  8
0
 62
     7
100
AcDbPolyline
 90
        2
 70
     0
 43
0.008
 10
2.399999999999999
 20
1.115999999999999
 10
3.399999999999999
 20
1.065999999999999
  0
LWPOLYLINE
  5
5A3
330
A
100
AcDbEntity
  8
0
 62
     7
100
AcDbPolyline
 90
        2
 70
     1
 43
0.004
 10
2.398
 20
1.115999999999999
 42
1.0
 10
2.401999999999999
 20
1.115999999999999
 42
1.0
  0
LWPOLYLINE
  5
5A7
330
A
100
AcDbEntity
  8
0
 62
     7
100
AcDbPolyline
 90
        2
 70
     1
 43
0.004
 10
3.398
 20
1.065999999999999
 42
1.0
 10
3.401999999999999
 20
1.065999999999999
 42
1.0
  0
LWPOLYLINE
  5
5AB
330
A
100
AcDbEntity
  8
0
 62
     7
100
AcDbPolyline
 90
        2
 70
     0
 43
0.008
 10
2.399999999999999
 20
1.099999999999999
 10
3.399999999999999
 20
1.049999999999999
  0
LWPOLYLINE
  5
5AF
330
A
100
AcDbEntity
  8
0
 62
     7
100
AcDbPolyline
 90
        2
 70
     1
 43
0.004
 10
2.398
 20
1.099999999999999
 42
1.0
 10
2.401999999999999
 20
1.099999999999999
 42
1.0
  0
LWPOLYLINE
  5
5B3
330
A
100
AcDbEntity
  8
0
 62
     7
100
AcDbPolyline
 90
        2
 70
     1
 43
0.004
 10
3.398
 20
1.049999999999999
 42
1.0
 10
3.401999999999999
 20
1.049999999999999
 42
1.0
  0
LWPOLYLINE
  5
5B7
330
A
100
AcDbEntity
  8
0
 62
     7
100
AcDbPolyline
 90
        2
 70
     0
 43
0.008
 10
1.5
 20
1.099999999999999
 10
2.399999999999999
 20
1.099999999999999
  0
LWPOLYLINE
  5
5BB
330
A
100
AcDbEntity
  8
0
 62
     7
100
AcDbPolyline
 90
        2
 70
     1
 43
0.004
 10
1.497999999999999
 20
1.099999999999999
 42
1.0
 10
1.502
 20
1.099999999999999
 42
1.0
  0
LWPOLYLINE
  5
5BF
330
A
100
AcDbEntity
  8
0
 62
     7
100
AcDbPolyline
 90
        2
 70
     1
 43
0.004
 10
2.398
 20
1.099999999999999
 42
1.0
 10
2.401999999999999
 20
1.099999999999999
 42
1.0
  0
LWPOLYLINE
  5
5C3
330
A
100
AcDbEntity
  8
0
 62
     7
100
AcDbPolyline
 90
        2
 70
     0
 43
0.007
 10
2.399999999999999
 20
1.055999999999999
 10
3.399999999999999
 20
1.005999999999999
  0
LWPOLYLINE
  5
5C7
330
A
100
AcDbEntity
  8
0
 62
     7
100
AcDbPolyline
 90
        2
 70
     1
 43
0.0035
 10
2.398249999999999
 20
1.055999999999999
 42
1.0
 10
2.401749999999999
 20
1.055999999999999
 42
1.0
  0
LWPOLYLINE
  5
5CB
330
A
100
AcDbEntity
  8
0
 62
     7
100
AcDbPolyline
 90
        2
 70
     1
 43
0.0035
 10
3.398249999999999
 20
1.005999999999999
 42
1.0
 10
3.401749999999999
 20
1.005999999999999
 42
1.0
  0
LWPOLYLINE
  5
5CF
330
A
100
AcDbEntity
  8
0
 62
     7
100
AcDbPolyline
 90
        2
 70
     0
 43
0.007
 10
1.5
 20
1.055999999999999
 10
2.399999999999999
 20
1.055999999999999
  0
LWPOLYLINE
  5
5D3
330
A
100
AcDbEntity
  8
0
 62
     7
100
AcDbPolyline
 90
        2
 70
     1
 43
0.0035
 10
1.49825
 20
1.055999999999999
 42
1.0
 10
1.501749999999999
 20
1.055999999999999
 42
1.0
  0
LWPOLYLINE
  5
5D7
330
A
100
AcDbEntity
  8
0
 62
     7
100
AcDbPolyline
 90
        2
 70
     1
 43
0.0035
 10
2.398249999999999
 20
1.055999999999999
 42
1.0
 10
2.401749999999999
 20
1.055999999999999
 42
1.0
  0
LWPOLYLINE
  5
5DB
330
A
100
AcDbEntity
  8
0
 62
     7
100
AcDbPolyline
 90
        2
 70
     0
 43
0.007
 10
1.5
 20
1.041999999999999
 10
2.399999999999999
 20
1.041999999999999
  0
LWPOLYLINE
  5
5DF
330
A
100
AcDbEntity
  8
0
 62
     7
100
AcDbPolyline
 90
        2
 70
     1
 43
0.0035
 10
1.49825
 20
1.041999999999999
 42
1.0
 10
1.501749999999999
 20
1.041999999999999
 42
1.0
  0
LWPOLYLINE
  5
5E3
330
A
100
AcDbEntity
  8
0
 62
     7
100
AcDbPolyline
 90
        2
 70
     1
 43
0.0035
 10
2.398249999999999
 20
1.041999999999999
 42
1.0
 10
2.401749999999999
 20
1.041999999999999
 42
1.0
  0
LWPOLYLINE
  5
5E7
330
A
100
AcDbEntity
  8
0
 62
     7
100
AcDbPolyline
 90
        2
 70
     0
 43
0.007
 10
2.399999999999999
 20
1.041999999999999
 10
3.399999999999999
 20
0.9919999999999994
  0
LWPOLYLINE
  5
5EB
330
A
100
AcDbEntity
  8
0
 62
     7
100
AcDbPolyline
 90
        2
 70
     1
 43
0.0035
 10
2.398249999999999
 20
1.041999999999999
 42
1.0
 10
2.401749999999999
 20
1.041999999999999
 42
1.0
  0
LWPOLYLINE
  5
5EF
330
A
100
AcDbEntity
  8
0
 62
     7
100
AcDbPolyline
 90
        2
 70
     1
 43
0.0035
 10
3.398249999999999
 20
0.9919999999999994
 42
1.0
 10
3.401749999999999
 20
0.9919999999999994
 42
1.0
  0
LWPOLYLINE
  5
5F3
330
A
100
AcDbEntity
  8
0
 62
     7
100
AcDbPolyline
 90
        2
 70
     0
 43
0.007
 10
2.399999999999999
 20
1.027999999999999
 10
3.399999999999999
 20
0.9779999999999994
  0
LWPOLYLINE
  5
5F7
330
A
100
AcDbEntity
  8
0
 62
     7
100
AcDbPolyline
 90
        2
 70
     1
 43
0.0035
 10
2.398249999999999
 20
1.027999999999999
 42
1.0
 10
2.401749999999999
 20
1.027999999999999
 42
1.0
  0
LWPOLYLINE
  5
5FB
330
A
100
AcDbEntity
  8
0
 62
     7
100
AcDbPolyline
 90
        2
 70
     1
 43
0.0035
 10
3.398249999999999
 20
0.9779999999999994
 42
1.0
 10
3.401749999999999
 20
0.9779999999999994
 42
1.0
  0
LWPOLYLINE
  5
5FF
330
A
100
AcDbEntity
  8
0
 62
     7
100
AcDbPolyline
 90
        2
 70
     0
 43
0.007
 10
1.5
 20
1.027999999999999
 10
2.399999999999999
 20
1.027999999999999
  0
LWPOLYLINE
  5
603
330
A
100
AcDbEntity
  8
0
 62
     7
100
AcDbPolyline
 90
        2
 70
     1
 43
0.0035
 10
1.49825
 20
1.027999999999999
 42
1.0
 10
1.501749999999999
 20
1.027999999999999
 42
1.0
  0
LWPOLYLINE
  5
607
330
A
100
AcDbEntity
  8
0
 62
     7
100
AcDbPolyline
 90
        2
 70
     1
 43
0.0035
 10
2.398249999999999
 20
1.027999999999999
 42
1.0
 10
2.401749999999999
 20
1.027999999999999
 42
1.0
  0
LWPOLYLINE
  5
60B
330
A
100
AcDbEntity
  8
0
 62
     7
100
AcDbPolyline
 90
        2
 70
     0
 43
0.007
 10
1.5
 20
1.013999999999998
 10
2.399999999999999
 20
1.013999999999998
  0
LWPOLYLINE
  5
60F
330
A
100
AcDbEntity
  8
0
 62
     7
100
AcDbPolyline
 90
        2
 70
     1
 43
0.0035
 10
1.49825
 20
1.013999999999998
 42
1.0
 10
1.501749999999999
 20
1.013999999999998
 42
1.0
  0
LWPOLYLINE
  5
613
330
A
100
AcDbEntity
  8
0
 62
     7
100
AcDbPolyline
 90
        2
 70
     1
 43
0.0035
 10
2.398249999999999
 20
1.013999999999998
 42
1.0
 10
2.401749999999999
 20
1.013999999999998
 42
1.0
  0
LWPOLYLINE
  5
617
330
A
100
AcDbEntity
  8
0
 62
     7
100
AcDbPolyline
 90
        2
 70
     0
 43
0.007
 10
2.399999999999999
 20
1.013999999999998
 10
3.399999999999999
 20
0.9639999999999989
  0
LWPOLYLINE
  5
61B
330
A
100
AcDbEntity
  8
0
 62
     7
100
AcDbPolyline
 90
        2
 70
     1
 43
0.0035
 10
2.398249999999999
 20
1.013999999999998
 42
1.0
 10
2.401749999999999
 20
1.013999999999998
 42
1.0
  0
LWPOLYLINE
  5
61F
330
A
100
AcDbEntity
  8
0
 62
     7
100
AcDbPolyline
 90
        2
 70
     1
 43
0.0035
 10
3.398249999999999
 20
0.9639999999999989
 42
1.0
 10
3.401749999999999
 20
0.9639999999999989
 42
1.0
  0
LWPOLYLINE
  5
623
330
A
100
AcDbEntity
  8
0
 62
     7
100
AcDbPolyline
 90
        2
 70
     0
 43
0.007
 10
2.399999999999999
 20
0.9999999999999996
 10
3.399999999999999
 20
0.9499999999999996
  0
LWPOLYLINE
  5
627
330
A
100
AcDbEntity
  8
0
 62
     7
100
AcDbPolyline
 90
        2
 70
     1
 43
0.0035
 10
2.398249999999999
 20
0.9999999999999996
 42
1.0
 10
2.401749999999999
 20
0.9999999999999996
 42
1.0
  0
LWPOLYLINE
  5
62B
330
A
100
AcDbEntity
  8
0
 62
     7
100
AcDbPolyline
 90
        2
 70
     1
 43
0.0035
 10
3.398249999999999
 20
0.9499999999999996
 42
1.0
 10
3.401749999999999
 20
0.9499999999999996
 42
1.0
  0
LWPOLYLINE
  5
62F
330
A
100
AcDbEntity
  8
0
 62
     7
100
AcDbPolyline
 90
        2
 70
     0
 43
0.007
 10
1.5
 20
0.9999999999999996
 10
2.399999999999999
 20
0.9999999999999996
  0
LWPOLYLINE
  5
633
330
A
100
AcDbEntity
  8
0
 62
     7
100
AcDbPolyline
 90
        2
 70
     1
 43
0.0035
 10
1.49825
 20
0.9999999999999996
 42
1.0
 10
1.501749999999999
 20
0.9999999999999996
 42
1.0
  0
LWPOLYLINE
  5
637
330
A
100
AcDbEntity
  8
0
 62
     7
100
AcDbPolyline
 90
        2
 70
     1
 43
0.0035
 10
2.398249999999999
 20
0.9999999999999996
 42
1.0
 10
2.401749999999999
 20
0.9999999999999996
 42
1.0
  0
LWPOLYLINE
  5
63B
330
A
100
AcDbEntity
  8
0
 62
     7
100
AcDbPolyline
 90
        2
 70
     0
 43
0.006
 10
2.399999999999999
 20
0.9479999999999989
 10
3.399999999999999
 20
0.8979999999999993
  0
LWPOLYLINE
  5
63F
330
A
100
AcDbEntity
  8
0
 62
     7
100
AcDbPolyline
 90
        2
 70
     1
 43
0.003
 10
2.398499999999999
 20
0.9479999999999989
 42
1.0
 10
2.401499999999999
 20
0.9479999999999989
 42
1.0
  0
LWPOLYLINE
  5
643
330
A
100
AcDbEntity
  8
0
 62
     7
100
AcDbPolyline
 90
        2
 70
     1
 43
0.003
 10
3.398499999999999
 20
0.8979999999999993
 42
1.0
 10
3.401499999999999
 20
0.8979999999999993
 42
1.0
  0
LWPOLYLINE
  5
647
330
A
100
AcDbEntity
  8
0
 62
     7
100
AcDbPolyline
 90
        2
 70
     0
 43
0.006
 10
1.5
 20
0.9479999999999989
 10
2.399999999999999
 20
0.9479999999999989
  0
LWPOLYLINE
  5
64B
330
A
100
AcDbEntity
  8
0
 62
     7
100
AcDbPolyline
 90
        2
 70
     1
 43
0.003
 10
1.498499999999999
 20
0.9479999999999989
 42
1.0
 10
1.5015
 20
0.9479999999999989
 42
1.0
  0
LWPOLYLINE
  5
64F
330
A
100
AcDbEntity
  8
0
 62
     7
100
AcDbPolyline
 90
        2
 70
     1
 43
0.003
 10
2.398499999999999
 20
0.9479999999999989
 42
1.0
 10
2.401499999999999
 20
0.9479999999999989
 42
1.0
  0
LWPOLYLINE
  5
653
330
A
100
AcDbEntity
  8
0
 62
     7
100
AcDbPolyline
 90
        2
 70
     0
 43
0.006
 10
1.5
 20
0.9359999999999995
 10
2.399999999999999
 20
0.9359999999999995
  0
LWPOLYLINE
  5
657
330
A
100
AcDbEntity
  8
0
 62
     7
100
AcDbPolyline
 90
        2
 70
     1
 43
0.003
 10
1.498499999999999
 20
0.9359999999999995
 42
1.0
 10
1.5015
 20
0.9359999999999995
 42
1.0
  0
LWPOLYLINE
  5
65B
330
A
100
AcDbEntity
  8
0
 62
     7
100
AcDbPolyline
 90
        2
 70
     1
 43
0.003
 10
2.398499999999999
 20
0.9359999999999995
 42
1.0
 10
2.401499999999999
 20
0.9359999999999995
 42
1.0
  0
LWPOLYLINE
  5
65F
330
A
100
AcDbEntity
  8
0
 62
     7
100
AcDbPolyline
 90
        2
 70
     0
 43
0.006
 10
2.399999999999999
 20
0.9359999999999995
 10
3.399999999999999
 20
0.8859999999999995
  0
LWPOLYLINE
  5
663
330
A
100
AcDbEntity
  8
0
 62
     7
100
AcDbPolyline
 90
        2
 70
     1
 43
0.003
 10
2.398499999999999
 20
0.9359999999999995
 42
1.0
 10
2.401499999999999
 20
0.9359999999999995
 42
1.0
  0
LWPOLYLINE
  5
667
330
A
100
AcDbEntity
  8
0
 62
     7
100
AcDbPolyline
 90
        2
 70
     1
 43
0.003
 10
3.398499999999999
 20
0.8859999999999995
 42
1.0
 10
3.401499999999999
 20
0.8859999999999995
 42
1.0
  0
LWPOLYLINE
  5
66B
330
A
100
AcDbEntity
  8
0
 62
     7
100
AcDbPolyline
 90
        2
 70
     0
 43
0.006
 10
2.399999999999999
 20
0.9239999999999991
 10
3.399999999999999
 20
0.8739999999999991
  0
LWPOLYLINE
  5
66F
330
A
100
AcDbEntity
  8
0
 62
     7
100
AcDbPolyline
 90
        2
 70
     1
 43
0.003
 10
2.398499999999999
 20
0.9239999999999991
 42
1.0
 10
2.401499999999999
 20
0.9239999999999991
 42
1.0
  0
LWPOLYLINE
  5
673
330
A
100
AcDbEntity
  8
0
 62
     7
100
AcDbPolyline
 90
        2
 70
     1
 43
0.003
 10
3.398499999999999
 20
0.8739999999999991
 42
1.0
 10
3.401499999999999
 20
0.8739999999999991
 42
1.0
  0
LWPOLYLINE
  5
677
330
A
100
AcDbEntity
  8
0
 62
     7
100
AcDbPolyline
 90
        2
 70
     0
 43
0.006
 10
1.5
 20
0.9239999999999991
 10
2.399999999999999
 20
0.9239999999999991
  0
LWPOLYLINE
  5
67B
330
A
100
AcDbEntity
  8
0
 62
     7
100
AcDbPolyline
 90
        2
 70
     1
 43
0.003
 10
1.498499999999999
 20
0.9239999999999991
 42
1.0
 10
1.5015
 20
0.9239999999999991
 42
1.0
  0
LWPOLYLINE
  5
67F
330
A
100
AcDbEntity
  8
0
 62
     7
100
AcDbPolyline
 90
        2
 70
     1
 43
0.003
 10
2.398499999999999
 20
0.9239999999999991
 42
1.0
 10
2.401499999999999
 20
0.9239999999999991
 42
1.0
  0
LWPOLYLINE
  5
683
330
A
100
AcDbEntity
  8
0
 62
     7
100
AcDbPolyline
 90
        2
 70
     0
 43
0.006
 10
1.5
 20
0.9119999999999993
 10
2.399999999999999
 20
0.9119999999999993
  0
LWPOLYLINE
  5
687
330
A
100
AcDbEntity
  8
0
 62
     7
100
AcDbPolyline
 90
        2
 70
     1
 43
0.003
 10
1.498499999999999
 20
0.9119999999999993
 42
1.0
 10
1.5015
 20
0.9119999999999993
 42
1.0
  0
LWPOLYLINE
  5
68B
330
A
100
AcDbEntity
  8
0
 62
     7
100
AcDbPolyline
 90
        2
 70
     1
 43
0.003
 10
2.398499999999999
 20
0.9119999999999993
 42
1.0
 10
2.401499999999999
 20
0.9119999999999993
 42
1.0
  0
LWPOLYLINE
  5
68F
330
A
100
AcDbEntity
  8
0
 62
     7
100
AcDbPolyline
 90
        2
 70
     0
 43
0.006
 10
2.399999999999999
 20
0.9119999999999993
 10
3.399999999999999
 20
0.8619999999999997
  0
LWPOLYLINE
  5
693
330
A
100
AcDbEntity
  8
0
 62
     7
100
AcDbPolyline
 90
        2
 70
     1
 43
0.003
 10
2.398499999999999
 20
0.9119999999999993
 42
1.0
 10
2.401499999999999
 20
0.9119999999999993
 42
1.0
  0
LWPOLYLINE
  5
697
330
A
100
AcDbEntity
  8
0
 62
     7
100
AcDbPolyline
 90
        2
 70
     1
 43
0.003
 10
3.398499999999999
 20
0.8619999999999997
 42
1.0
 10
3.401499999999999
 20
0.8619999999999997
 42
1.0
  0
LWPOLYLINE
  5
69B
330
A
100
AcDbEntity
  8
0
 62
     7
100
AcDbPolyline
 90
        2
 70
     0
 43
0.006
 10
2.399999999999999
 20
0.8999999999999989
 10
3.399999999999999
 20
0.8499999999999992
  0
LWPOLYLINE
  5
69F
330
A
100
AcDbEntity
  8
0
 62
     7
100
AcDbPolyline
 90
        2
 70
     1
 43
0.003
 10
2.398499999999999
 20
0.8999999999999989
 42
1.0
 10
2.401499999999999
 20
0.8999999999999989
 42
1.0
  0
LWPOLYLINE
  5
6A3
330
A
100
AcDbEntity
  8
0
 62
     7
100
AcDbPolyline
 90
        2
 70
     1
 43
0.003
 10
3.398499999999999
 20
0.8499999999999992
 42
1.0
 10
3.401499999999999
 20
0.8499999999999992
 42
1.0
  0
LWPOLYLINE
  5
6A7
330
A
100
AcDbEntity
  8
0
 62
     7
100
AcDbPolyline
 90
        2
 70
     0
 43
0.006
 10
1.5
 20
0.8999999999999989
 10
2.399999999999999
 20
0.8999999999999989
  0
LWPOLYLINE
  5
6AB
330
A
100
AcDbEntity
  8
0
 62
     7
100
AcDbPolyline
 90
        2
 70
     1
 43
0.003
 10
1.498499999999999
 20
0.8999999999999989
 42
1.0
 10
1.5015
 20
0.8999999999999989
 42
1.0
  0
LWPOLYLINE
  5
6AF
330
A
100
AcDbEntity
  8
0
 62
     7
100
AcDbPolyline
 90
        2
 70
     1
 43
0.003
 10
2.398499999999999
 20
0.8999999999999989
 42
1.0
 10
2.401499999999999
 20
0.8999999999999989
 42
1.0
  0
LWPOLYLINE
  5
6B3
330
A
100
AcDbEntity
  8
0
 62
     7
100
AcDbPolyline
 90
        2
 70
     0
 43
0.003
 10
2.399999999999999
 20
0.6239999999999993
 10
3.399999999999999
 20
0.5739999999999994
  0
LWPOLYLINE
  5
6B7
330
A
100
AcDbEntity
  8
0
 62
     7
100
AcDbPolyline
 90
        2
 70
     1
 43
0.0015
 10
2.399249999999999
 20
0.6239999999999993
 42
1.0
 10
2.400749999999999
 20
0.6239999999999993
 42
1.0
  0
LWPOLYLINE
  5
6BB
330
A
100
AcDbEntity
  8
0
 62
     7
100
AcDbPolyline
 90
        2
 70
     1
 43
0.0015
 10
3.399249999999999
 20
0.5739999999999994
 42
1.0
 10
3.400749999999999
 20
0.5739999999999994
 42
1.0
  0
LWPOLYLINE
  5
6BF
330
A
100
AcDbEntity
  8
0
 62
     7
100
AcDbPolyline
 90
        2
 70
     0
 43
0.003
 10
1.5
 20
0.6239999999999993
 10
2.399999999999999
 20
0.6239999999999993
  0
LWPOLYLINE
  5
6C3
330
A
100
AcDbEntity
  8
0
 62
     7
100
AcDbPolyline
 90
        2
 70
     1
 43
0.0015
 10
1.499249999999999
 20
0.6239999999999993
 42
1.0
 10
1.50075
 20
0.6239999999999993
 42
1.0
  0
LWPOLYLINE
  5
6C7
330
A
100
AcDbEntity
  8
0
 62
     7
100
AcDbPolyline
 90
        2
 70
     1
 43
0.0015
 10
2.399249999999999
 20
0.6239999999999993
 42
1.0
 10
2.400749999999999
 20
0.6239999999999993
 42
1.0
  0
LWPOLYLINE
  5
6CB
330
A
100
AcDbEntity
  8
0
 62
     7
100
AcDbPolyline
 90
        2
 70
     0
 43
0.003
 10
1.5
 20
0.6179999999999999
 10
2.399999999999999
 20
0.6179999999999999
  0
LWPOLYLINE
  5
6CF
330
A
100
AcDbEntity
  8
0
 62
     7
100
AcDbPolyline
 90
        2
 70
     1
 43
0.0015
 10
1.499249999999999
 20
0.6179999999999999
 42
1.0
 10
1.50075
 20
0.6179999999999999
 42
1.0
  0
LWPOLYLINE
  5
6D3
330
A
100
AcDbEntity
  8
0
 62
     7
100
AcDbPolyline
 90
        2
 70
     1
 43
0.0015
 10
2.399249999999999
 20
0.6179999999999999
 42
1.0
 10
2.400749999999999
 20
0.6179999999999999
 42
1.0
  0
LWPOLYLINE
  5
6D7
330
A
100
AcDbEntity
  8
0
 62
     7
100
AcDbPolyline
 90
        2
 70
     0
 43
0.003
 10
2.399999999999999
 20
0.6179999999999999
 10
3.399999999999999
 20
0.5680000000000001
  0
LWPOLYLINE
  5
6DB
330
A
100
AcDbEntity
  8
0
 62
     7
100
AcDbPolyline
 90
        2
 70
     1
 43
0.0015
 10
2.399249999999999
 20
0.6179999999999999
 42
1.0
 10
2.400749999999999
 20
0.6179999999999999
 42
1.0
  0
LWPOLYLINE
  5
6DF
330
A
100
AcDbEntity
  8
0
 62
     7
100
AcDbPolyline
 90
        2
 70
     1
 43
0.0015
 10
3.399249999999999
 20
0.5680000000000001
 42
1.0
 10
3.400749999999999
 20
0.5680000000000001
 42
1.0
  0
LWPOLYLINE
  5
6E3
330
A
100
AcDbEntity
  8
0
 62
     7
100
AcDbPolyline
 90
        2
 70
     0
 43
0.003
 10
2.399999999999999
 20
0.6119999999999997
 10
3.399999999999999
 20
0.5619999999999999
  0
LWPOLYLINE
  5
6E7
330
A
100
AcDbEntity
  8
0
 62
     7
100
AcDbPolyline
 90
        2
 70
     1
 43
0.0015
 10
2.399249999999999
 20
0.6119999999999997
 42
1.0
 10
2.400749999999999
 20
0.6119999999999997
 42
1.0
  0
LWPOLYLINE
  5
6EB
330
A
100
AcDbEntity
  8
0
 62
     7
100
AcDbPolyline
 90
        2
 70
     1
 43
0.0015
 10
3.399249999999999
 20
0.5619999999999999
 42
1.0
 10
3.400749999999999
 20
0.5619999999999999
 42
1.0
  0
LWPOLYLINE
  5
6EF
330
A
100
AcDbEntity
  8
0
 62
     7
100
AcDbPolyline
 90
        2
 70
     0
 43
0.003
 10
1.5
 20
0.6119999999999997
 10
2.399999999999999
 20
0.6119999999999997
  0
LWPOLYLINE
  5
6F3
330
A
100
AcDbEntity
  8
0
 62
     7
100
AcDbPolyline
 90
        2
 70
     1
 43
0.0015
 10
1.499249999999999
 20
0.6119999999999997
 42
1.0
 10
1.50075
 20
0.6119999999999997
 42
1.0
  0
LWPOLYLINE
  5
6F7
330
A
100
AcDbEntity
  8
0
 62
     7
100
AcDbPolyline
 90
        2
 70
     1
 43
0.0015
 10
2.399249999999999
 20
0.6119999999999997
 42
1.0
 10
2.400749999999999
 20
0.6119999999999997
 42
1.0
  0
LWPOLYLINE
  5
6FB
330
A
100
AcDbEntity
  8
0
 62
     7
100
AcDbPolyline
 90
        2
 70
     0
 43
0.003
 10
1.5
 20
0.6059999999999995
 10
2.399999999999999
 20
0.6059999999999995
  0
LWPOLYLINE
  5
6FF
330
A
100
AcDbEntity
  8
0
 62
     7
100
AcDbPolyline
 90
        2
 70
     1
 43
0.0015
 10
1.499249999999999
 20
0.6059999999999995
 42
1.0
 10
1.50075
 20
0.6059999999999995
 42
1.0
  0
LWPOLYLINE
  5
703
330
A
100
AcDbEntity
  8
0
 62
     7
100
AcDbPolyline
 90
        2
 70
     1
 43
0.0015
 10
2.399249999999999
 20
0.6059999999999995
 42
1.0
 10
2.400749999999999
 20
0.6059999999999995
 42
1.0
  0
LWPOLYLINE
  5
707
330
A
100
AcDbEntity
  8
0
 62
     7
100
AcDbPolyline
 90
        2
 70
     0
 43
0.003
 10
2.399999999999999
 20
0.6059999999999995
 10
3.399999999999999
 20
0.5559999999999996
  0
LWPOLYLINE
  5
70B
330
A
100
AcDbEntity
  8
0
 62
     7
100
AcDbPolyline
 90
        2
 70
     1
 43
0.0015
 10
2.399249999999999
 20
0.6059999999999995
 42
1.0
 10
2.400749999999999
 20
0.6059999999999995
 42
1.0
  0
LWPOLYLINE
  5
70F
330
A
100
AcDbEntity
  8
0
 62
     7
100
AcDbPolyline
 90
        2
 70
     1
 43
0.0015
 10
3.399249999999999
 20
0.5559999999999996
 42
1.0
 10
3.400749999999999
 20
0.5559999999999996
 42
1.0
  0
LWPOLYLINE
  5
713
330
A
100
AcDbEntity
  8
0
 62
     7
100
AcDbPolyline
 90
        2
 70
     0
 43
0.003
 10
2.399999999999999
 20
0.5999999999999992
 10
3.399999999999999
 20
0.5499999999999994
  0
LWPOLYLINE
  5
717
330
A
100
AcDbEntity
  8
0
 62
     7
100
AcDbPolyline
 90
        2
 70
     1
 43
0.0015
 10
2.399249999999999
 20
0.5999999999999992
 42
1.0
 10
2.400749999999999
 20
0.5999999999999992
 42
1.0
  0
LWPOLYLINE
  5
71B
330
A
100
AcDbEntity
  8
0
 62
     7
100
AcDbPolyline
 90
        2
 70
     1
 43
0.0015
 10
3.399249999999999
 20
0.5499999999999994
 42
1.0
 10
3.400749999999999
 20
0.5499999999999994
 42
1.0
  0
LWPOLYLINE
  5
71F
330
A
100
AcDbEntity
  8
0
 62
     7
100
AcDbPolyline
 90
        2
 70
     0
 43
0.003
 10
1.5
 20
0.5999999999999992
 10
2.399999999999999
 20
0.5999999999999992
  0
LWPOLYLINE
  5
723
330
A
100
AcDbEntity
  8
0
 62
     7
100
AcDbPolyline
 90
        2
 70
     1
 43
0.0015
 10
1.499249999999999
 20
0.5999999999999992
 42
1.0
 10
1.50075
 20
0.5999999999999992
 42
1.0
  0
LWPOLYLINE
  5
727
330
A
100
AcDbEntity
  8
0
 62
     7
100
AcDbPolyline
 90
        2
 70
     1
 43
0.0015
 10
2.399249999999999
 20
0.5999999999999992
 42
1.0
 10
2.400749999999999
 20
0.5999999999999992
 42
1.0
  0
LWPOLYLINE
  5
72B
330
A
100
AcDbEntity
  8
0
 62
     7
100
AcDbPolyline
 90
        2
 70
     0
 43
0.002
 10
2.399999999999999
 20
0.5159999999999996
 10
3.399999999999999
 20
0.4659999999999998
  0
LWPOLYLINE
  5
72F
330
A
100
AcDbEntity
  8
0
 62
     7
100
AcDbPolyline
 90
        2
 70
     1
 43
0.001
 10
2.3995
 20
0.5159999999999996
 42
1.0
 10
2.4005
 20
0.5159999999999996
 42
1.0
  0
LWPOLYLINE
  5
733
330
A
100
AcDbEntity
  8
0
 62
     7
100
AcDbPolyline
 90
        2
 70
     1
 43
0.001
 10
3.399499999999999
 20
0.4659999999999998
 42
1.0
 10
3.4005
 20
0.4659999999999998
 42
1.0
  0
LWPOLYLINE
  5
737
330
A
100
AcDbEntity
  8
0
 62
     7
100
AcDbPolyline
 90
        2
 70
     0
 43
0.002
 10
1.5
 20
0.5159999999999996
 10
2.399999999999999
 20
0.5159999999999996
  0
LWPOLYLINE
  5
73B
330
A
100
AcDbEntity
  8
0
 62
     7
100
AcDbPolyline
 90
        2
 70
     1
 43
0.001
 10
1.499499999999999
 20
0.5159999999999996
 42
1.0
 10
1.5005
 20
0.5159999999999996
 42
1.0
  0
LWPOLYLINE
  5
73F
330
A
100
AcDbEntity
  8
0
 62
     7
100
AcDbPolyline
 90
        2
 70
     1
 43
0.001
 10
2.3995
 20
0.5159999999999996
 42
1.0
 10
2.4005
 20
0.5159999999999996
 42
1.0
  0
LWPOLYLINE
  5
743
330
A
100
AcDbEntity
  8
0
 62
     7
100
AcDbPolyline
 90
        2
 70
     0
 43
0.002
 10
1.5
 20
0.5119999999999992
 10
2.399999999999999
 20
0.5119999999999992
  0
LWPOLYLINE
  5
747
330
A
100
AcDbEntity
  8
0
 62
     7
100
AcDbPolyline
 90
        2
 70
     1
 43
0.001
 10
1.499499999999999
 20
0.5119999999999992
 42
1.0
 10
1.5005
 20
0.5119999999999992
 42
1.0
  0
LWPOLYLINE
  5
74B
330
A
100
AcDbEntity
  8
0
 62
     7
100
AcDbPolyline
 90
        2
 70
     1
 43
0.001
 10
2.3995
 20
0.5119999999999992
 42
1.0
 10
2.4005
 20
0.5119999999999992
 42
1.0
  0
LWPOLYLINE
  5
74F
330
A
100
AcDbEntity
  8
0
 62
     7
100
AcDbPolyline
 90
        2
 70
     0
 43
0.002
 10
2.399999999999999
 20
0.5119999999999992
 10
3.399999999999999
 20
0.4619999999999993
  0
LWPOLYLINE
  5
753
330
A
100
AcDbEntity
  8
0
 62
     7
100
AcDbPolyline
 90
        2
 70
     1
 43
0.001
 10
2.3995
 20
0.5119999999999992
 42
1.0
 10
2.4005
 20
0.5119999999999992
 42
1.0
  0
LWPOLYLINE
  5
757
330
A
100
AcDbEntity
  8
0
 62
     7
100
AcDbPolyline
 90
        2
 70
     1
 43
0.001
 10
3.399499999999999
 20
0.4619999999999993
 42
1.0
 10
3.4005
 20
0.4619999999999993
 42
1.0
  0
LWPOLYLINE
  5
75B
330
A
100
AcDbEntity
  8
0
 62
     7
100
AcDbPolyline
 90
        2
 70
     0
 43
0.002
 10
2.399999999999999
 20
0.5079999999999996
 10
3.399999999999999
 20
0.4579999999999998
  0
LWPOLYLINE
  5
75F
330
A
100
AcDbEntity
  8
0
 62
     7
100
AcDbPolyline
 90
        2
 70
     1
 43
0.001
 10
2.3995
 20
0.5079999999999996
 42
1.0
 10
2.4005
 20
0.5079999999999996
 42
1.0
  0
LWPOLYLINE
  5
763
330
A
100
AcDbEntity
  8
0
 62
     7
100
AcDbPolyline
 90
        2
 70
     1
 43
0.001
 10
3.399499999999999
 20
0.4579999999999998
 42
1.0
 10
3.4005
 20
0.4579999999999998
 42
1.0
  0
LWPOLYLINE
  5
767
330
A
100
AcDbEntity
  8
0
 62
     7
100
AcDbPolyline
 90
        2
 70
     0
 43
0.002
 10
1.5
 20
0.5079999999999996
 10
2.399999999999999
 20
0.5079999999999996
  0
LWPOLYLINE
  5
76B
330
A
100
AcDbEntity
  8
0
 62
     7
100
AcDbPolyline
 90
        2
 70
     1
 43
0.001
 10
1.499499999999999
 20
0.5079999999999996
 42
1.0
 10
1.5005
 20
0.5079999999999996
 42
1.0
  0
LWPOLYLINE
  5
76F
330
A
100
AcDbEntity
  8
0
 62
     7
100
AcDbPolyline
 90
        2
 70
     1
 43
0.001
 10
2.3995
 20
0.5079999999999996
 42
1.0
 10
2.4005
 20
0.5079999999999996
 42
1.0
  0
LWPOLYLINE
  5
773
330
A
100
AcDbEntity
  8
0
 62
     7
100
AcDbPolyline
 90
        2
 70
     0
 43
0.002
 10
1.5
 20
0.5039999999999992
 10
2.399999999999999
 20
0.5039999999999992
  0
LWPOLYLINE
  5
777
330
A
100
AcDbEntity
  8
0
 62
     7
100
AcDbPolyline
 90
        2
 70
     1
 43
0.001
 10
1.499499999999999
 20
0.5039999999999992
 42
1.0
 10
1.5005
 20
0.5039999999999992
 42
1.0
  0
LWPOLYLINE
  5
77B
330
A
100
AcDbEntity
  8
0
 62
     7
100
AcDbPolyline
 90
        2
 70
     1
 43
0.001
 10
2.3995
 20
0.5039999999999992
 42
1.0
 10
2.4005
 20
0.5039999999999992
 42
1.0
  0
LWPOLYLINE
  5
77F
330
A
100
AcDbEntity
  8
0
 62
     7
100
AcDbPolyline
 90
        2
 70
     0
 43
0.002
 10
2.399999999999999
 20
0.5039999999999992
 10
3.399999999999999
 20
0.4539999999999993
  0
LWPOLYLINE
  5
783
330
A
100
AcDbEntity
  8
0
 62
     7
100
AcDbPolyline
 90
        2
 70
     1
 43
0.001
 10
2.3995
 20
0.5039999999999992
 42
1.0
 10
2.4005
 20
0.5039999999999992
 42
1.0
  0
LWPOLYLINE
  5
787
330
A
100
AcDbEntity
  8
0
 62
     7
100
AcDbPolyline
 90
        2
 70
     1
 43
0.001
 10
3.399499999999999
 20
0.4539999999999993
 42
1.0
 10
3.4005
 20
0.4539999999999993
 42
1.0
  0
LWPOLYLINE
  5
78B
330
A
100
AcDbEntity
  8
0
 62
     7
100
AcDbPolyline
 90
        2
 70
     0
 43
0.002
 10
2.399999999999999
 20
0.4999999999999996
 10
3.399999999999999
 20
0.4499999999999998
  0
LWPOLYLINE
  5
78F
330
A
100
AcDbEntity
  8
0
 62
     7
100
AcDbPolyline
 90
        2
 70
     1
 43
0.001
 10
2.3995
 20
0.4999999999999996
 42
1.0
 10
2.4005
 20
0.4999999999999996
 42
1.0
  0
LWPOLYLINE
  5
793
330
A
100
AcDbEntity
  8
0
 62
     7
100
AcDbPolyline
 90
        2
 70
     1
 43
0.001
 10
3.399499999999999
 20
0.4499999999999998
 42
1.0
 10
3.4005
 20
0.4499999999999998
 42
1.0
  0
LWPOLYLINE
  5
797
330
A
100
AcDbEntity
  8
0
 62
     7
100
AcDbPolyline
 90
        2
 70
     0
 43
0.002
 10
1.5
 20
0.4999999999999996
 10
2.399999999999999
 20
0.4999999999999996
  0
LWPOLYLINE
  5
79B
330
A
100
AcDbEntity
  8
0
 62
     7
100
AcDbPolyline
 90
        2
 70
     1
 43
0.001
 10
1.499499999999999
 20
0.4999999999999996
 42
1.0
 10
1.5005
 20
0.4999999999999996
 42
1.0
  0
LWPOLYLINE
  5
79F
330
A
100
AcDbEntity
  8
0
 62
     7
100
AcDbPolyline
 90
        2
 70
     1
 43
0.001
 10
2.3995
 20
0.4999999999999996
 42
1.0
 10
2.4005
 20
0.4999999999999996
 42
1.0
  0
LWPOLYLINE
  5
7A3
330
A
100
AcDbEntity
  8
0
 62
     7
100
AcDbPolyline
 90
        2
 70
     0
 43
0.001
 10
1.5
 20
0.408
 10
2.399999999999999
 20
0.408
  0
LWPOLYLINE
  5
7A7
330
A
100
AcDbEntity
  8
0
 62
     7
100
AcDbPolyline
 90
        2
 70
     1
 43
0.0005
 10
1.49975
 20
0.408
 42
1.0
 10
1.500249999999999
 20
0.408
 42
1.0
  0
LWPOLYLINE
  5
7AB
330
A
100
AcDbEntity
  8
0
 62
     7
100
AcDbPolyline
 90
        2
 70
     1
 43
0.0005
 10
2.39975
 20
0.408
 42
1.0
 10
2.400249999999999
 20
0.408
 42
1.0
  0
LWPOLYLINE
  5
7AF
330
A
100
AcDbEntity
  8
0
 62
     7
100
AcDbPolyline
 90
        2
 70
     0
 43
0.001
 10
2.399999999999999
 20
0.408
 10
3.399999999999999
 20
0.3580000000000001
  0
LWPOLYLINE
  5
7B3
330
A
100
AcDbEntity
  8
0
 62
     7
100
AcDbPolyline
 90
        2
 70
     1
 43
0.0005
 10
2.39975
 20
0.408
 42
1.0
 10
2.400249999999999
 20
0.408
 42
1.0
  0
LWPOLYLINE
  5
7B7
330
A
100
AcDbEntity
  8
0
 62
     7
100
AcDbPolyline
 90
        2
 70
     1
 43
0.0005
 10
3.39975
 20
0.3580000000000001
 42
1.0
 10
3.400249999999999
 20
0.3580000000000001
 42
1.0
  0
LWPOLYLINE
  5
7BB
330
A
100
AcDbEntity
  8
0
 62
     7
100
AcDbPolyline
 90
        2
 70
     0
 43
0.001
 10
2.399999999999999
 20
0.4060000000000002
 10
3.399999999999999
 20
0.3559999999999994
  0
LWPOLYLINE
  5
7BF
330
A
100
AcDbEntity
  8
0
 62
     7
100
AcDbPolyline
 90
        2
 70
     1
 43
0.0005
 10
2.39975
 20
0.4060000000000002
 42
1.0
 10
2.400249999999999
 20
0.4060000000000002
 42
1.0
  0
LWPOLYLINE
  5
7C3
330
A
100
AcDbEntity
  8
0
 62
     7
100
AcDbPolyline
 90
        2
 70
     1
 43
0.0005
 10
3.39975
 20
0.3559999999999994
 42
1.0
 10
3.400249999999999
 20
0.3559999999999994
 42
1.0
  0
LWPOLYLINE
  5
7C7
330
A
100
AcDbEntity
  8
0
 62
     7
100
AcDbPolyline
 90
        2
 70
     0
 43
0.001
 10
1.5
 20
0.4060000000000002
 10
2.399999999999999
 20
0.4060000000000002
  0
LWPOLYLINE
  5
7CB
330
A
100
AcDbEntity
  8
0
 62
     7
100
AcDbPolyline
 90
        2
 70
     1
 43
0.0005
 10
1.49975
 20
0.4060000000000002
 42
1.0
 10
1.500249999999999
 20
0.4060000000000002
 42
1.0
  0
LWPOLYLINE
  5
7CF
330
A
100
AcDbEntity
  8
0
 62
     7
100
AcDbPolyline
 90
        2
 70
     1
 43
0.0005
 10
2.39975
 20
0.4060000000000002
 42
1.0
 10
2.400249999999999
 20
0.4060000000000002
 42
1.0
  0
LWPOLYLINE
  5
7D3
330
A
100
AcDbEntity
  8
0
 62
     7
100
AcDbPolyline
 90
        2
 70
     0
 43
0.001
 10
1.5
 20
0.4039999999999995
 10
2.399999999999999
 20
0.4039999999999995
  0
LWPOLYLINE
  5
7D7
330
A
100
AcDbEntity
  8
0
 62
     7
100
AcDbPolyline
 90
        2
 70
     1
 43
0.0005
 10
1.49975
 20
0.4039999999999995
 42
1.0
 10
1.500249999999999
 20
0.4039999999999995
 42
1.0
  0
LWPOLYLINE
  5
7DB
330
A
100
AcDbEntity
  8
0
 62
     7
100
AcDbPolyline
 90
        2
 70
     1
 43
0.0005
 10
2.39975
 20
0.4039999999999995
 42
1.0
 10
2.400249999999999
 20
0.4039999999999995
 42
1.0
  0
LWPOLYLINE
  5
7DF
330
A
100
AcDbEntity
  8
0
 62
     7
100
AcDbPolyline
 90
        2
 70
     0
 43
0.001
 10
2.399999999999999
 20
0.4039999999999995
 10
3.399999999999999
 20
0.3539999999999996
  0
LWPOLYLINE
  5
7E3
330
A
100
AcDbEntity
  8
0
 62
     7
100
AcDbPolyline
 90
        2
 70
     1
 43
0.0005
 10
2.39975
 20
0.4039999999999995
 42
1.0
 10
2.400249999999999
 20
0.4039999999999995
 42
1.0
  0
LWPOLYLINE
  5
7E7
330
A
100
AcDbEntity
  8
0
 62
     7
100
AcDbPolyline
 90
        2
 70
     1
 43
0.0005
 10
3.39975
 20
0.3539999999999996
 42
1.0
 10
3.400249999999999
 20
0.3539999999999996
 42
1.0
  0
LWPOLYLINE
  5
7EB
330
A
100
AcDbEntity
  8
0
 62
     7
100
AcDbPolyline
 90
        2
 70
     0
 43
0.001
 10
1.5
 20
0.4019999999999997
 10
2.399999999999999
 20
0.4019999999999997
  0
LWPOLYLINE
  5
7EF
330
A
100
AcDbEntity
  8
0
 62
     7
100
AcDbPolyline
 90
        2
 70
     1
 43
0.0005
 10
1.49975
 20
0.4019999999999997
 42
1.0
 10
1.500249999999999
 20
0.4019999999999997
 42
1.0
  0
LWPOLYLINE
  5
7F3
330
A
100
AcDbEntity
  8
0
 62
     7
100
AcDbPolyline
 90
        2
 70
     1
 43
0.0005
 10
2.39975
 20
0.4019999999999997
 42
1.0
 10
2.400249999999999
 20
0.4019999999999997
 42
1.0
  0
LWPOLYLINE
  5
7F7
330
A
100
AcDbEntity
  8
0
 62
     7
100
AcDbPolyline
 90
        2
 70
     0
 43
0.001
 10
2.399999999999999
 20
0.4019999999999997
 10
3.399999999999999
 20
0.3519999999999999
  0
LWPOLYLINE
  5
7FB
330
A
100
AcDbEntity
  8
0
 62
     7
100
AcDbPolyline
 90
        2
 70
     1
 43
0.0005
 10
2.39975
 20
0.4019999999999997
 42
1.0
 10
2.400249999999999
 20
0.4019999999999997
 42
1.0
  0
LWPOLYLINE
  5
7FF
330
A
100
AcDbEntity
  8
0
 62
     7
100
AcDbPolyline
 90
        2
 70
     1
 43
0.0005
 10
3.39975
 20
0.3519999999999999
 42
1.0
 10
3.400249999999999
 20
0.3519999999999999
 42
1.0
  0
LWPOLYLINE
  5
803
330
A
100
AcDbEntity
  8
0
 62
     7
100
AcDbPolyline
 90
        2
 70
     0
 43
0.001
 10
2.399999999999999
 20
0.3999999999999999
 10
3.399999999999999
 20
0.3499999999999992
  0
LWPOLYLINE
  5
807
330
A
100
AcDbEntity
  8
0
 62
     7
100
AcDbPolyline
 90
        2
 70
     1
 43
0.0005
 10
2.39975
 20
0.3999999999999999
 42
1.0
 10
2.400249999999999
 20
0.3999999999999999
 42
1.0
  0
LWPOLYLINE
  5
80B
330
A
100
AcDbEntity
  8
0
 62
     7
100
AcDbPolyline
 90
        2
 70
     1
 43
0.0005
 10
3.39975
 20
0.3499999999999992
 42
1.0
 10
3.400249999999999
 20
0.3499999999999992
 42
1.0
  0
LWPOLYLINE
  5
80F
330
A
100
AcDbEntity
  8
0
 62
     7
100
AcDbPolyline
 90
        2
 70
     0
 43
0.001
 10
1.5
 20
0.3999999999999999
 10
2.399999999999999
 20
0.3999999999999999
  0
LWPOLYLINE
  5
813
330
A
100
AcDbEntity
  8
0
 62
     7
100
AcDbPolyline
 90
        2
 70
     1
 43
0.0005
 10
1.49975
 20
0.3999999999999999
 42
1.0
 10
1.500249999999999
 20
0.3999999999999999
 42
1.0
  0
LWPOLYLINE
  5
817
330
A
100
AcDbEntity
  8
0
 62
     7
100
AcDbPolyline
 90
        2
 70
     1
 43
0.0005
 10
2.39975
 20
0.3999999999999999
 42
1.0
 10
2.400249999999999
 20
0.3999999999999999
 42
1.0
  0
LWPOLYLINE
  5
81B
330
A
100
AcDbEntity
  8
0
 62
     7
100
AcDbPolyline
 90
        2
 70
     0
 43
0.005
 10
1.5
 20
0.7999999999999994
 10
2.399999999999999
 20
0.7999999999999994
  0
LWPOLYLINE
  5
81F
330
A
100
AcDbEntity
  8
0
 62
     7
100
AcDbPolyline
 90
        2
 70
     1
 43
0.0025
 10
1.498749999999999
 20
0.7999999999999994
 42
1.0
 10
1.50125
 20
0.7999999999999994
 42
1.0
  0
LWPOLYLINE
  5
823
330
A
100
AcDbEntity
  8
0
 62
     7
100
AcDbPolyline
 90
        2
 70
     1
 43
0.0025
 10
2.39875
 20
0.7999999999999994
 42
1.0
 10
2.40125
 20
0.7999999999999994
 42
1.0
  0
LWPOLYLINE
  5
827
330
A
100
AcDbEntity
  8
0
 62
     7
100
AcDbPolyline
 90
        2
 70
     0
 43
0.004
 10
1.5
 20
0.6999999999999998
 10
2.399999999999999
 20
0.6999999999999998
  0
LWPOLYLINE
  5
82B
330
A
100
AcDbEntity
  8
0
 62
     7
100
AcDbPolyline
 90
        2
 70
     1
 43
0.002
 10
1.499
 20
0.6999999999999998
 42
1.0
 10
1.500999999999999
 20
0.6999999999999998
 42
1.0
  0
LWPOLYLINE
  5
82F
330
A
100
AcDbEntity
  8
0
 62
     7
100
AcDbPolyline
 90
        2
 70
     1
 43
0.002
 10
2.399
 20
0.6999999999999998
 42
1.0
 10
2.400999999999999
 20
0.6999999999999998
 42
1.0
  0
LWPOLYLINE
  5
833
330
A
100
AcDbEntity
  8
0
 62
     7
100
AcDbPolyline
 90
        2
 70
     0
 43
0.004
 10
2.399999999999999
 20
0.6999999999999998
 10
3.399999999999999
 20
0.65
  0
LWPOLYLINE
  5
837
330
A
100
AcDbEntity
  8
0
 62
     7
100
AcDbPolyline
 90
        2
 70
     1
 43
0.002
 10
2.399
 20
0.6999999999999998
 42
1.0
 10
2.400999999999999
 20
0.6999999999999998
 42
1.0
  0
LWPOLYLINE
  5
83B
330
A
100
AcDbEntity
  8
0
 62
     7
100
AcDbPolyline
 90
        2
 70
     1
 43
0.002
 10
3.398999999999999
 20
0.65
 42
1.0
 10
3.401
 20
0.65
 42
1.0
  0
LWPOLYLINE
  5
83F
330
A
100
AcDbEntity
  8
0
 62
     7
100
AcDbPolyline
 90
        2
 70
     0
 43
0.004
 10
1.5
 20
0.7079999999999998
 10
2.399999999999999
 20
0.7079999999999998
  0
LWPOLYLINE
  5
843
330
A
100
AcDbEntity
  8
0
 62
     7
100
AcDbPolyline
 90
        2
 70
     1
 43
0.002
 10
1.499
 20
0.7079999999999998
 42
1.0
 10
1.500999999999999
 20
0.7079999999999998
 42
1.0
  0
LWPOLYLINE
  5
847
330
A
100
AcDbEntity
  8
0
 62
     7
100
AcDbPolyline
 90
        2
 70
     1
 43
0.002
 10
2.399
 20
0.7079999999999998
 42
1.0
 10
2.400999999999999
 20
0.7079999999999998
 42
1.0
  0
LWPOLYLINE
  5
84B
330
A
100
AcDbEntity
  8
0
 62
     7
100
AcDbPolyline
 90
        2
 70
     0
 43
0.004
 10
2.399999999999999
 20
0.7079999999999998
 10
3.399999999999999
 20
0.658
  0
LWPOLYLINE
  5
84F
330
A
100
AcDbEntity
  8
0
 62
     7
100
AcDbPolyline
 90
        2
 70
     1
 43
0.002
 10
2.399
 20
0.7079999999999998
 42
1.0
 10
2.400999999999999
 20
0.7079999999999998
 42
1.0
  0
LWPOLYLINE
  5
853
330
A
100
AcDbEntity
  8
0
 62
     7
100
AcDbPolyline
 90
        2
 70
     1
 43
0.002
 10
3.398999999999999
 20
0.658
 42
1.0
 10
3.401
 20
0.658
 42
1.0
  0
LWPOLYLINE
  5
857
330
A
100
AcDbEntity
  8
0
 62
     7
100
AcDbPolyline
 90
        2
 70
     0
 43
0.004
 10
2.399999999999999
 20
0.7159999999999998
 10
3.399999999999999
 20
0.666
  0
LWPOLYLINE
  5
85B
330
A
100
AcDbEntity
  8
0
 62
     7
100
AcDbPolyline
 90
        2
 70
     1
 43
0.002
 10
2.399
 20
0.7159999999999998
 42
1.0
 10
2.400999999999999
 20
0.7159999999999998
 42
1.0
  0
LWPOLYLINE
  5
85F
330
A
100
AcDbEntity
  8
0
 62
     7
100
AcDbPolyline
 90
        2
 70
     1
 43
0.002
 10
3.398999999999999
 20
0.666
 42
1.0
 10
3.401
 20
0.666
 42
1.0
  0
LWPOLYLINE
  5
863
330
A
100
AcDbEntity
  8
0
 62
     7
100
AcDbPolyline
 90
        2
 70
     0
 43
0.004
 10
1.5
 20
0.7159999999999998
 10
2.399999999999999
 20
0.7159999999999998
  0
LWPOLYLINE
  5
867
330
A
100
AcDbEntity
  8
0
 62
     7
100
AcDbPolyline
 90
        2
 70
     1
 43
0.002
 10
1.499
 20
0.7159999999999998
 42
1.0
 10
1.500999999999999
 20
0.7159999999999998
 42
1.0
  0
LWPOLYLINE
  5
86B
330
A
100
AcDbEntity
  8
0
 62
     7
100
AcDbPolyline
 90
        2
 70
     1
 43
0.002
 10
2.399
 20
0.7159999999999998
 42
1.0
 10
2.400999999999999
 20
0.7159999999999998
 42
1.0
  0
LWPOLYLINE
  5
86F
330
A
100
AcDbEntity
  8
0
 62
     7
100
AcDbPolyline
 90
        2
 70
     0
 43
0.004
 10
1.5
 20
0.7239999999999998
 10
2.399999999999999
 20
0.7239999999999998
  0
LWPOLYLINE
  5
873
330
A
100
AcDbEntity
  8
0
 62
     7
100
AcDbPolyline
 90
        2
 70
     1
 43
0.002
 10
1.499
 20
0.7239999999999998
 42
1.0
 10
1.500999999999999
 20
0.7239999999999998
 42
1.0
  0
LWPOLYLINE
  5
877
330
A
100
AcDbEntity
  8
0
 62
     7
100
AcDbPolyline
 90
        2
 70
     1
 43
0.002
 10
2.399
 20
0.7239999999999998
 42
1.0
 10
2.400999999999999
 20
0.7239999999999998
 42
1.0
  0
LWPOLYLINE
  5
87B
330
A
100
AcDbEntity
  8
0
 62
     7
100
AcDbPolyline
 90
        2
 70
     0
 43
0.004
 10
2.399999999999999
 20
0.7239999999999998
 10
3.399999999999999
 20
0.6739999999999991
  0
LWPOLYLINE
  5
87F
330
A
100
AcDbEntity
  8
0
 62
     7
100
AcDbPolyline
 90
        2
 70
     1
 43
0.002
 10
2.399
 20
0.7239999999999998
 42
1.0
 10
2.400999999999999
 20
0.7239999999999998
 42
1.0
  0
LWPOLYLINE
  5
883
330
A
100
AcDbEntity
  8
0
 62
     7
100
AcDbPolyline
 90
        2
 70
     1
 43
0.002
 10
3.398999999999999
 20
0.6739999999999991
 42
1.0
 10
3.401
 20
0.6739999999999991
 42
1.0
  0
LWPOLYLINE
  5
887
330
A
100
AcDbEntity
  8
0
 62
     7
100
AcDbPolyline
 90
        2
 70
     0
 43
0.004
 10
2.399999999999999
 20
0.7319999999999998
 10
3.399999999999999
 20
0.6819999999999991
  0
LWPOLYLINE
  5
88B
330
A
100
AcDbEntity
  8
0
 62
     7
100
AcDbPolyline
 90
        2
 70
     1
 43
0.002
 10
2.399
 20
0.7319999999999998
 42
1.0
 10
2.400999999999999
 20
0.7319999999999998
 42
1.0
  0
LWPOLYLINE
  5
88F
330
A
100
AcDbEntity
  8
0
 62
     7
100
AcDbPolyline
 90
        2
 70
     1
 43
0.002
 10
3.398999999999999
 20
0.6819999999999991
 42
1.0
 10
3.401
 20
0.6819999999999991
 42
1.0
  0
LWPOLYLINE
  5
893
330
A
100
AcDbEntity
  8
0
 62
     7
100
AcDbPolyline
 90
        2
 70
     0
 43
0.004
 10
1.5
 20
0.7319999999999998
 10
2.399999999999999
 20
0.7319999999999998
  0
LWPOLYLINE
  5
897
330
A
100
AcDbEntity
  8
0
 62
     7
100
AcDbPolyline
 90
        2
 70
     1
 43
0.002
 10
1.499
 20
0.7319999999999998
 42
1.0
 10
1.500999999999999
 20
0.7319999999999998
 42
1.0
  0
LWPOLYLINE
  5
89B
330
A
100
AcDbEntity
  8
0
 62
     7
100
AcDbPolyline
 90
        2
 70
     1
 43
0.002
 10
2.399
 20
0.7319999999999998
 42
1.0
 10
2.400999999999999
 20
0.7319999999999998
 42
1.0
  0
LWPOLYLINE
  5
89F
330
A
100
AcDbEntity
  8
0
 62
     7
100
AcDbPolyline
 90
        2
 70
     0
 43
0.005
 10
2.399999999999999
 20
0.7999999999999994
 10
3.399999999999999
 20
0.7499999999999996
  0
LWPOLYLINE
  5
8A3
330
A
100
AcDbEntity
  8
0
 62
     7
100
AcDbPolyline
 90
        2
 70
     1
 43
0.0025
 10
2.39875
 20
0.7999999999999994
 42
1.0
 10
2.40125
 20
0.7999999999999994
 42
1.0
  0
LWPOLYLINE
  5
8A7
330
A
100
AcDbEntity
  8
0
 62
     7
100
AcDbPolyline
 90
        2
 70
     1
 43
0.0025
 10
3.398749999999999
 20
0.7499999999999996
 42
1.0
 10
3.40125
 20
0.7499999999999996
 42
1.0
  0
LWPOLYLINE
  5
8AB
330
A
100
AcDbEntity
  8
0
 62
     7
100
AcDbPolyline
 90
        2
 70
     0
 43
0.005
 10
1.5
 20
0.809999999999999
 10
2.399999999999999
 20
0.809999999999999
  0
LWPOLYLINE
  5
8AF
330
A
100
AcDbEntity
  8
0
 62
     7
100
AcDbPolyline
 90
        2
 70
     1
 43
0.0025
 10
1.498749999999999
 20
0.809999999999999
 42
1.0
 10
1.50125
 20
0.809999999999999
 42
1.0
  0
LWPOLYLINE
  5
8B3
330
A
100
AcDbEntity
  8
0
 62
     7
100
AcDbPolyline
 90
        2
 70
     1
 43
0.0025
 10
2.39875
 20
0.809999999999999
 42
1.0
 10
2.40125
 20
0.809999999999999
 42
1.0
  0
LWPOLYLINE
  5
8B7
330
A
100
AcDbEntity
  8
0
 62
     7
100
AcDbPolyline
 90
        2
 70
     0
 43
0.005
 10
2.399999999999999
 20
0.809999999999999
 10
3.399999999999999
 20
0.7599999999999994
  0
LWPOLYLINE
  5
8BB
330
A
100
AcDbEntity
  8
0
 62
     7
100
AcDbPolyline
 90
        2
 70
     1
 43
0.0025
 10
2.39875
 20
0.809999999999999
 42
1.0
 10
2.40125
 20
0.809999999999999
 42
1.0
  0
LWPOLYLINE
  5
8BF
330
A
100
AcDbEntity
  8
0
 62
     7
100
AcDbPolyline
 90
        2
 70
     1
 43
0.0025
 10
3.398749999999999
 20
0.7599999999999994
 42
1.0
 10
3.40125
 20
0.7599999999999994
 42
1.0
  0
LWPOLYLINE
  5
8C3
330
A
100
AcDbEntity
  8
0
 62
     7
100
AcDbPolyline
 90
        2
 70
     0
 43
0.005
 10
2.399999999999999
 20
0.8199999999999988
 10
3.399999999999999
 20
0.7700000000000001
  0
LWPOLYLINE
  5
8C7
330
A
100
AcDbEntity
  8
0
 62
     7
100
AcDbPolyline
 90
        2
 70
     1
 43
0.0025
 10
2.39875
 20
0.8199999999999988
 42
1.0
 10
2.40125
 20
0.8199999999999988
 42
1.0
  0
LWPOLYLINE
  5
8CB
330
A
100
AcDbEntity
  8
0
 62
     7
100
AcDbPolyline
 90
        2
 70
     1
 43
0.0025
 10
3.398749999999999
 20
0.7700000000000001
 42
1.0
 10
3.40125
 20
0.7700000000000001
 42
1.0
  0
LWPOLYLINE
  5
8CF
330
A
100
AcDbEntity
  8
0
 62
     7
100
AcDbPolyline
 90
        2
 70
     0
 43
0.005
 10
1.5
 20
0.8199999999999988
 10
2.399999999999999
 20
0.8199999999999988
  0
LWPOLYLINE
  5
8D3
330
A
100
AcDbEntity
  8
0
 62
     7
100
AcDbPolyline
 90
        2
 70
     1
 43
0.0025
 10
1.498749999999999
 20
0.8199999999999988
 42
1.0
 10
1.50125
 20
0.8199999999999988
 42
1.0
  0
LWPOLYLINE
  5
8D7
330
A
100
AcDbEntity
  8
0
 62
     7
100
AcDbPolyline
 90
        2
 70
     1
 43
0.0025
 10
2.39875
 20
0.8199999999999988
 42
1.0
 10
2.40125
 20
0.8199999999999988
 42
1.0
  0
LWPOLYLINE
  5
8DB
330
A
100
AcDbEntity
  8
0
 62
     7
100
AcDbPolyline
 90
        2
 70
     0
 43
0.005
 10
1.5
 20
0.8299999999999997
 10
2.399999999999999
 20
0.8299999999999997
  0
LWPOLYLINE
  5
8DF
330
A
100
AcDbEntity
  8
0
 62
     7
100
AcDbPolyline
 90
        2
 70
     1
 43
0.0025
 10
1.498749999999999
 20
0.8299999999999997
 42
1.0
 10
1.50125
 20
0.8299999999999997
 42
1.0
  0
LWPOLYLINE
  5
8E3
330
A
100
AcDbEntity
  8
0
 62
     7
100
AcDbPolyline
 90
        2
 70
     1
 43
0.0025
 10
2.39875
 20
0.8299999999999997
 42
1.0
 10
2.40125
 20
0.8299999999999997
 42
1.0
  0
LWPOLYLINE
  5
8E7
330
A
100
AcDbEntity
  8
0
 62
     7
100
AcDbPolyline
 90
        2
 70
     0
 43
0.005
 10
2.399999999999999
 20
0.8299999999999997
 10
3.399999999999999
 20
0.7799999999999998
  0
LWPOLYLINE
  5
8EB
330
A
100
AcDbEntity
  8
0
 62
     7
100
AcDbPolyline
 90
        2
 70
     1
 43
0.0025
 10
2.39875
 20
0.8299999999999997
 42
1.0
 10
2.40125
 20
0.8299999999999997
 42
1.0
  0
LWPOLYLINE
  5
8EF
330
A
100
AcDbEntity
  8
0
 62
     7
100
AcDbPolyline
 90
        2
 70
     1
 43
0.0025
 10
3.398749999999999
 20
0.7799999999999998
 42
1.0
 10
3.40125
 20
0.7799999999999998
 42
1.0
  0
LWPOLYLINE
  5
8F3
330
A
100
AcDbEntity
  8
0
 62
     7
100
AcDbPolyline
 90
        2
 70
     0
 43
0.005
 10
2.399999999999999
 20
0.8399999999999995
 10
3.399999999999999
 20
0.7899999999999996
  0
LWPOLYLINE
  5
8F7
330
A
100
AcDbEntity
  8
0
 62
     7
100
AcDbPolyline
 90
        2
 70
     1
 43
0.0025
 10
2.39875
 20
0.8399999999999995
 42
1.0
 10
2.40125
 20
0.8399999999999995
 42
1.0
  0
LWPOLYLINE
  5
8FB
330
A
100
AcDbEntity
  8
0
 62
     7
100
AcDbPolyline
 90
        2
 70
     1
 43
0.0025
 10
3.398749999999999
 20
0.7899999999999996
 42
1.0
 10
3.40125
 20
0.7899999999999996
 42
1.0
  0
LWPOLYLINE
  5
8FF
330
A
100
AcDbEntity
  8
0
 62
     7
100
AcDbPolyline
 90
        2
 70
     0
 43
0.005
 10
1.5
 20
0.8399999999999995
 10
2.399999999999999
 20
0.8399999999999995
  0
LWPOLYLINE
  5
903
330
A
100
AcDbEntity
  8
0
 62
     7
100
AcDbPolyline
 90
        2
 70
     1
 43
0.0025
 10
1.498749999999999
 20
0.8399999999999995
 42
1.0
 10
1.50125
 20
0.8399999999999995
 42
1.0
  0
LWPOLYLINE
  5
907
330
A
100
AcDbEntity
  8
0
 62
     7
100
AcDbPolyline
 90
        2
 70
     1
 43
0.0025
 10
2.39875
 20
0.8399999999999995
 42
1.0
 10
2.40125
 20
0.8399999999999995
 42
1.0
  0
LWPOLYLINE
  5
90B
330
A
100
AcDbEntity
  8
0
 62
     7
100
AcDbPolyline
 90
        2
 70
     0
 43
0.01
 10
2.399999999999999
 20
1.399999999999999
 10
3.399999999999999
 20
1.349999999999999
  0
LWPOLYLINE
  5
90F
330
A
100
AcDbEntity
  8
0
 62
     7
100
AcDbPolyline
 90
        2
 70
     1
 43
0.005
 10
2.397499999999999
 20
1.399999999999999
 42
1.0
 10
2.402499999999999
 20
1.399999999999999
 42
1.0
  0
LWPOLYLINE
  5
913
330
A
100
AcDbEntity
  8
0
 62
     7
100
AcDbPolyline
 90
        2
 70
     1
 43
0.005
 10
3.397499999999999
 20
1.349999999999999
 42
1.0
 10
3.402499999999999
 20
1.349999999999999
 42
1.0
  0
LWPOLYLINE
  5
917
330
A
100
AcDbEntity
  8
0
 62
     7
100
AcDbPolyline
 90
        2
 70
     0
 43
0.01
 10
1.5
 20
1.479999999999999
 10
2.399999999999999
 20
1.479999999999999
  0
LWPOLYLINE
  5
91B
330
A
100
AcDbEntity
  8
0
 62
     7
100
AcDbPolyline
 90
        2
 70
     1
 43
0.005
 10
1.4975
 20
1.479999999999999
 42
1.0
 10
1.502499999999999
 20
1.479999999999999
 42
1.0
  0
LWPOLYLINE
  5
91F
330
A
100
AcDbEntity
  8
0
 62
     7
100
AcDbPolyline
 90
        2
 70
     1
 43
0.005
 10
2.397499999999999
 20
1.479999999999999
 42
1.0
 10
2.402499999999999
 20
1.479999999999999
 42
1.0
  0
LWPOLYLINE
  5
923
330
A
100
AcDbEntity
  8
0
 62
     7
100
AcDbPolyline
 90
        2
 70
     0
 43
0.01
 10
2.399999999999999
 20
1.479999999999999
 10
3.399999999999999
 20
1.429999999999999
  0
LWPOLYLINE
  5
927
330
A
100
AcDbEntity
  8
0
 62
     7
100
AcDbPolyline
 90
        2
 70
     1
 43
0.005
 10
2.397499999999999
 20
1.479999999999999
 42
1.0
 10
2.402499999999999
 20
1.479999999999999
 42
1.0
  0
LWPOLYLINE
  5
92B
330
A
100
AcDbEntity
  8
0
 62
     7
100
AcDbPolyline
 90
        2
 70
     1
 43
0.005
 10
3.397499999999999
 20
1.429999999999999
 42
1.0
 10
3.402499999999999
 20
1.429999999999999
 42
1.0
  0
LWPOLYLINE
  5
92F
330
A
100
AcDbEntity
  8
0
 62
     7
100
AcDbPolyline
 90
        2
 70
     0
 43
0.01
 10
2.399999999999999
 20
1.459999999999999
 10
3.399999999999999
 20
1.409999999999999
  0
LWPOLYLINE
  5
933
330
A
100
AcDbEntity
  8
0
 62
     7
100
AcDbPolyline
 90
        2
 70
     1
 43
0.005
 10
2.397499999999999
 20
1.459999999999999
 42
1.0
 10
2.402499999999999
 20
1.459999999999999
 42
1.0
  0
LWPOLYLINE
  5
937
330
A
100
AcDbEntity
  8
0
 62
     7
100
AcDbPolyline
 90
        2
 70
     1
 43
0.005
 10
3.397499999999999
 20
1.409999999999999
 42
1.0
 10
3.402499999999999
 20
1.409999999999999
 42
1.0
  0
LWPOLYLINE
  5
93B
330
A
100
AcDbEntity
  8
0
 62
     7
100
AcDbPolyline
 90
        2
 70
     0
 43
0.01
 10
1.5
 20
1.459999999999999
 10
2.399999999999999
 20
1.459999999999999
  0
LWPOLYLINE
  5
93F
330
A
100
AcDbEntity
  8
0
 62
     7
100
AcDbPolyline
 90
        2
 70
     1
 43
0.005
 10
1.4975
 20
1.459999999999999
 42
1.0
 10
1.502499999999999
 20
1.459999999999999
 42
1.0
  0
LWPOLYLINE
  5
943
330
A
100
AcDbEntity
  8
0
 62
     7
100
AcDbPolyline
 90
        2
 70
     1
 43
0.005
 10
2.397499999999999
 20
1.459999999999999
 42
1.0
 10
2.402499999999999
 20
1.459999999999999
 42
1.0
  0
LWPOLYLINE
  5
947
330
A
100
AcDbEntity
  8
0
 62
     7
100
AcDbPolyline
 90
        2
 70
     0
 43
0.01
 10
1.5
 20
1.439999999999999
 10
2.399999999999999
 20
1.439999999999999
  0
LWPOLYLINE
  5
94B
330
A
100
AcDbEntity
  8
0
 62
     7
100
AcDbPolyline
 90
        2
 70
     1
 43
0.005
 10
1.4975
 20
1.439999999999999
 42
1.0
 10
1.502499999999999
 20
1.439999999999999
 42
1.0
  0
LWPOLYLINE
  5
94F
330
A
100
AcDbEntity
  8
0
 62
     7
100
AcDbPolyline
 90
        2
 70
     1
 43
0.005
 10
2.397499999999999
 20
1.439999999999999
 42
1.0
 10
2.402499999999999
 20
1.439999999999999
 42
1.0
  0
LWPOLYLINE
  5
953
330
A
100
AcDbEntity
  8
0
 62
     7
100
AcDbPolyline
 90
        2
 70
     0
 43
0.01
 10
2.399999999999999
 20
1.439999999999999
 10
3.399999999999999
 20
1.389999999999999
  0
LWPOLYLINE
  5
957
330
A
100
AcDbEntity
  8
0
 62
     7
100
AcDbPolyline
 90
        2
 70
     1
 43
0.005
 10
2.397499999999999
 20
1.439999999999999
 42
1.0
 10
2.402499999999999
 20
1.439999999999999
 42
1.0
  0
LWPOLYLINE
  5
95B
330
A
100
AcDbEntity
  8
0
 62
     7
100
AcDbPolyline
 90
        2
 70
     1
 43
0.005
 10
3.397499999999999
 20
1.389999999999999
 42
1.0
 10
3.402499999999999
 20
1.389999999999999
 42
1.0
  0
LWPOLYLINE
  5
95F
330
A
100
AcDbEntity
  8
0
 62
     7
100
AcDbPolyline
 90
        2
 70
     0
 43
0.01
 10
2.399999999999999
 20
1.419999999999999
 10
3.399999999999999
 20
1.369999999999999
  0
LWPOLYLINE
  5
963
330
A
100
AcDbEntity
  8
0
 62
     7
100
AcDbPolyline
 90
        2
 70
     1
 43
0.005
 10
2.397499999999999
 20
1.419999999999999
 42
1.0
 10
2.402499999999999
 20
1.419999999999999
 42
1.0
  0
LWPOLYLINE
  5
967
330
A
100
AcDbEntity
  8
0
 62
     7
100
AcDbPolyline
 90
        2
 70
     1
 43
0.005
 10
3.397499999999999
 20
1.369999999999999
 42
1.0
 10
3.402499999999999
 20
1.369999999999999
 42
1.0
  0
LWPOLYLINE
  5
96B
330
A
100
AcDbEntity
  8
0
 62
     7
100
AcDbPolyline
 90
        2
 70
     0
 43
0.01
 10
1.5
 20
1.419999999999999
 10
2.399999999999999
 20
1.419999999999999
  0
LWPOLYLINE
  5
96F
330
A
100
AcDbEntity
  8
0
 62
     7
100
AcDbPolyline
 90
        2
 70
     1
 43
0.005
 10
1.4975
 20
1.419999999999999
 42
1.0
 10
1.502499999999999
 20
1.419999999999999
 42
1.0
  0
LWPOLYLINE
  5
973
330
A
100
AcDbEntity
  8
0
 62
     7
100
AcDbPolyline
 90
        2
 70
     1
 43
0.005
 10
2.397499999999999
 20
1.419999999999999
 42
1.0
 10
2.402499999999999
 20
1.419999999999999
 42
1.0
  0
LWPOLYLINE
  5
977
330
A
100
AcDbEntity
  8
0
 62
     7
100
AcDbPolyline
 90
        2
 70
     0
 43
0.01
 10
1.5
 20
1.399999999999999
 10
2.399999999999999
 20
1.399999999999999
  0
LWPOLYLINE
  5
97B
330
A
100
AcDbEntity
  8
0
 62
     7
100
AcDbPolyline
 90
        2
 70
     1
 43
0.005
 10
1.4975
 20
1.399999999999999
 42
1.0
 10
1.502499999999999
 20
1.399999999999999
 42
1.0
  0
LWPOLYLINE
  5
97F
330
A
100
AcDbEntity
  8
0
 62
     7
100
AcDbPolyline
 90
        2
 70
     1
 43
0.005
 10
2.397499999999999
 20
1.399999999999999
 42
1.0
 10
2.402499999999999
 20
1.399999999999999
 42
1.0
  0
LWPOLYLINE
  5
983
330
A
100
AcDbEntity
  8
0
 62
     7
100
AcDbPolyline
 90
        2
 70
     0
 43
0.02
 10
7.700000000000001
 20
0.3
 10
7.700000000000001
 20
2.5
  0
LWPOLYLINE
  5
987
330
A
100
AcDbEntity
  8
0
 62
     7
100
AcDbPolyline
 90
        2
 70
     1
 43
0.005
 10
5.397499999999999
 20
0.3
 42
1.0
 10
5.4025
 20
0.3
 42
1.0
  0
LWPOLYLINE
  5
98F
330
A
100
AcDbEntity
  8
0
 62
     7
100
AcDbPolyline
 90
        2
 70
     0
 43
0.02
 10
1.399999999999999
 20
0.3
 10
1.399999999999999
 20
2.5
  0
LWPOLYLINE
  5
993
330
A
100
AcDbEntity
  8
0
 62
     7
100
AcDbPolyline
 90
        2
 70
     1
 43
0.005
 10
1.397499999999999
 20
0.3
 42
1.0
 10
1.402499999999999
 20
0.3
 42
1.0
  0
LWPOLYLINE
  5
99B
330
A
100
AcDbEntity
  8
0
 62
     7
100
AcDbPolyline
 90
        2
 70
     0
 43
0.02
 10
1.399999999999999
 20
2.5
 10
7.700000000000001
 20
2.5
  0
LWPOLYLINE
  5
9A7
330
A
100
AcDbEntity
  8
0
 62
     7
100
AcDbPolyline
 90
        2
 70
     0
 43
0.02
 10
1.399999999999999
 20
0.3
 10
7.700000000000001
 20
0.3
  0
LWPOLYLINE
  5
9AB
330
A
100
AcDbEntity
  8
0
 62
     7
100
AcDbPolyline
 90
        2
 70
     1
 43
0.005
 10
1.397499999999999
 20
0.3
 42
1.0
 10
1.402499999999999
 20
0.3
 42
1.0
  0
LWPOLYLINE
  5
9AF
330
A
100
AcDbEntity
  8
0
 62
     7
100
AcDbPolyline
 90
        2
 70
     1
 43
0.005
 10
5.397499999999999
 20
0.3
 42
1.0
 10
5.4025
 20
0.3
 42
1.0
  0
TEXT
  5
9B3
330
A
100
AcDbEntity
  8
0
 62
     7
100
AcDbText
 10
1.5
 20
2.55
 30
0.0
 40
0.1
  1
Test Chart by Bertho Boman
100
AcDbText
  0
TEXT
  5
9B4
330
A
100
AcDbEntity
  8
0
 62
     7
100
AcDbText
 10
4.5
 20
2.55
 30
0.0
 40
0.1
  1
http://www.vinland.com/USAF-1951.html
100
AcDbText
  0
TEXT
  5
9B5
330
A
100
AcDbEntity
  8
0
 62
     7
100
AcDbText
 10
3.541999999999999
 20
2.35
 30
0.0
 40
0.04
  1
1
 50
270.0
100
AcDbText
  0
TEXT
  5
9B6
330
A
100
AcDbEntity
  8
0
 62
     7
100
AcDbText
 10
3.642
 20
2.35
 30
0.0
 40
0.04
  1
2
 50
270.0
100
AcDbText
  0
TEXT
  5
9B7
330
A
100
AcDbEntity
  8
0
 62
     7
100
AcDbText
 10
3.741999999999999
 20
2.35
 30
0.0
 40
0.04
  1
3
 50
270.0
100
AcDbText
  0
TEXT
  5
9B8
330
A
100
AcDbEntity
  8
0
 62
     7
100
AcDbText
 10
4.041999999999999
 20
2.35
 30
0.0
 40
0.04
  1
6
 50
270.0
100
AcDbText
  0
TEXT
  5
9B9
330
A
100
AcDbEntity
  8
0
 62
     7
100
AcDbText
 10
4.142
 20
2.35
 30
0.0
 40
0.04
  1
7
 50
270.0
100
AcDbText
  0
TEXT
  5
9BA
330
A
100
AcDbEntity
  8
0
 62
     7
100
AcDbText
 10
4.241999999999999
 20
2.35
 30
0.0
 40
0.04
  1
8
 50
270.0
100
AcDbText
  0
TEXT
  5
9BB
330
A
100
AcDbEntity
  8
0
 62
     7
100
AcDbText
 10
4.342
 20
2.35
 30
0.0
 40
0.04
  1
9
 50
270.0
100
AcDbText
  0
TEXT
  5
9BC
330
A
100
AcDbEntity
  8
0
 62
     7
100
AcDbText
 10
4.541999999999999
 20
2.374999999999999
 30
0.0
 40
0.04
  1
10
 50
270.0
100
AcDbText
  0
TEXT
  5
9BD
330
A
100
AcDbEntity
  8
0
 62
     7
100
AcDbText
 10
3.841999999999999
 20
2.35
 30
0.0
 40
0.04
  1
4
 50
270.0
100
AcDbText
  0
TEXT
  5
9BE
330
A
100
AcDbEntity
  8
0
 62
     7
100
AcDbText
 10
3.942
 20
2.35
 30
0.0
 40
0.04
  1
5
 50
270.0
100
AcDbText
  0
TEXT
  5
9BF
330
A
100
AcDbEntity
  8
0
 62
     7
100
AcDbText
 10
1.45
 20
0.3999999999999999
 30
0.0
 40
0.04
  1
1
100
AcDbText
  0
TEXT
  5
9C0
330
A
100
AcDbEntity
  8
0
 62
     7
100
AcDbText
 10
1.45
 20
0.4999999999999996
 30
0.0
 40
0.04
  1
2
100
AcDbText
  0
TEXT
  5
9C1
330
A
100
AcDbEntity
  8
0
 62
     7
100
AcDbText
 10
1.45
 20
0.5999999999999992
 30
0.0
 40
0.04
  1
3
100
AcDbText
  0
TEXT
  5
9C2
330
A
100
AcDbEntity
  8
0
 62
     7
100
AcDbText
 10
1.45
 20
0.8999999999999989
 30
0.0
 40
0.04
  1
6
100
AcDbText
  0
TEXT
  5
9C3
330
A
100
AcDbEntity
  8
0
 62
     7
100
AcDbText
 10
1.45
 20
0.9999999999999996
 30
0.0
 40
0.04
  1
7
100
AcDbText
  0
TEXT
  5
9C4
330
A
100
AcDbEntity
  8
0
 62
     7
100
AcDbText
 10
1.45
 20
1.099999999999999
 30
0.0
 40
0.04
  1
8
100
AcDbText
  0
TEXT
  5
9C5
330
A
100
AcDbEntity
  8
0
 62
     7
100
AcDbText
 10
1.45
 20
1.199999999999999
 30
0.0
 40
0.04
  1
9
100
AcDbText
  0
TEXT
  5
9C6
330
A
100
AcDbEntity
  8
0
 62
     7
100
AcDbText
 10
1.424999999999999
 20
1.399999999999999
 30
0.0
 40
0.04
  1
10
100
AcDbText
  0
TEXT
  5
9C7
330
A
100
AcDbEntity
  8
0
 62
     7
100
AcDbText
 10
1.45
 20
0.6999999999999998
 30
0.0
 40
0.04
  1
4
100
AcDbText
  0
TEXT
  5
9C8
330
A
100
AcDbEntity
  8
0
 62
     7
100
AcDbText
 10
1.45
 20
0.7999999999999994
 30
0.0
 40
0.04
  1
5
100
AcDbText
  0
LWPOLYLINE
  5
CC6
330
A
100
AcDbEntity
  8
0
 62
     7
100
AcDbPolyline
 90
        2
 70
     0
 43
0.005
 10
7.999999999999999
 20
2.33
 10
7.999999999999999
 20
2.569999999999999
  0
LWPOLYLINE
  5
CC7
330
A
100
AcDbEntity
  8
0
 62
     7
100
AcDbPolyline
 90
        2
 70
     1
 43
0.0025
 10
7.998749999999999
 20
2.33
 42
1.0
 10
8.001249999999998
 20
2.33
 42
1.0
  0
LWPOLYLINE
  5
CC8
330
A
100
AcDbEntity
  8
0
 62
     7
100
AcDbPolyline
 90
        2
 70
     1
 43
0.0025
 10
7.998749999999999
 20
2.569999999999999
 42
1.0
 10
8.001249999999998
 20
2.569999999999999
 42
1.0
  0
LWPOLYLINE
  5
CC9
330
A
100
AcDbEntity
  8
0
 62
     7
100
AcDbPolyline
 90
        2
 70
     0
 43
0.005
 10
7.999999999999999
 20
2.63
 10
7.999999999999999
 20
2.869999999999999
  0
LWPOLYLINE
  5
CCA
330
A
100
AcDbEntity
  8
0
 62
     7
100
AcDbPolyline
 90
        2
 70
     1
 43
0.0025
 10
7.998749999999999
 20
2.63
 42
1.0
 10
8.001249999999998
 20
2.63
 42
1.0
  0
LWPOLYLINE
  5
CCB
330
A
100
AcDbEntity
  8
0
 62
     7
100
AcDbPolyline
 90
        2
 70
     1
 43
0.0025
 10
7.998749999999999
 20
2.869999999999999
 42
1.0
 10
8.001249999999998
 20
2.869999999999999
 42
1.0
  0
LWPOLYLINE
  5
CCC
330
A
100
AcDbEntity
  8
0
 62
     7
100
AcDbPolyline
 90
        2
 70
     0
 43
0.005
 10
7.729999999999999
 20
2.6
 10
7.969999999999998
 20
2.6
  0
LWPOLYLINE
  5
CCD
330
A
100
AcDbEntity
  8
0
 62
     7
100
AcDbPolyline
 90
        2
 70
     1
 43
0.0025
 10
7.728749999999998
 20
2.6
 42
1.0
 10
7.731249999999999
 20
2.6
 42
1.0
  0
LWPOLYLINE
  5
CCE
330
A
100
AcDbEntity
  8
0
 62
     7
100
AcDbPolyline
 90
        2
 70
     1
 43
0.0025
 10
7.968749999999999
 20
2.6
 42
1.0
 10
7.971249999999999
 20
2.6
 42
1.0
  0
LWPOLYLINE
  5
CCF
330
A
100
AcDbEntity
  8
0
 62
     7
100
AcDbPolyline
 90
        2
 70
     0
 43
0.005
 10
8.030000000000001
 20
2.6
 10
8.269999999999999
 20
2.6
  0
LWPOLYLINE
  5
CD0
330
A
100
AcDbEntity
  8
0
 62
     7
100
AcDbPolyline
 90
        2
 70
     1
 43
0.0025
 10
8.028749999999998
 20
2.6
 42
1.0
 10
8.03125
 20
2.6
 42
1.0
  0
LWPOLYLINE
  5
CD1
330
A
100
AcDbEntity
  8
0
 62
     7
100
AcDbPolyline
 90
        2
 70
     1
 43
0.0025
 10
8.26875
 20
2.6
 42
1.0
 10
8.271249999999998
 20
2.6
 42
1.0
  0
LWPOLYLINE
  5
CD2
330
A
100
AcDbEntity
  8
0
 62
     7
100
AcDbPolyline
 90
        2
 70
     1
 43
0.005
 10
8.05
 20
2.6
 42
1.0
 10
7.949999999999999
 20
2.6
 42
1.0
  0
LWPOLYLINE
  5
CD3
330
A
100
AcDbEntity
  8
0
 62
     7
100
AcDbPolyline
 90
        2
 70
     1
 43
0.0025
 10
8.048749999999998
 20
2.6
 42
1.0
 10
8.051249999999999
 20
2.6
 42
1.0
  0
LWPOLYLINE
  5
CD4
330
A
100
AcDbEntity
  8
0
 62
     7
100
AcDbPolyline
 90
        2
 70
     1
 43
0.0025
 10
7.948749999999999
 20
2.6
 42
1.0
 10
7.951249999999999
 20
2.6
 42
1.0
  0
LWPOLYLINE
  5
CD5
330
A
100
AcDbEntity
  8
0
 62
     7
100
AcDbPolyline
 90
        2
 70
     1
 43
0.005
 10
8.07
 20
2.6
 42
1.0
 10
7.929999999999998
 20
2.6
 42
1.0
  0
LWPOLYLINE
  5
CD6
330
A
100
AcDbEntity
  8
0
 62
     7
100
AcDbPolyline
 90
        2
 70
     1
 43
0.0025
 10
8.068749999999997
 20
2.6
 42
1.0
 10
8.071249999999999
 20
2.6
 42
1.0
  0
LWPOLYLINE
  5
CD7
330
A
100
AcDbEntity
  8
0
 62
     7
100
AcDbPolyline
 90
        2
 70
     1
 43
0.0025
 10
7.928749999999999
 20
2.6
 42
1.0
 10
7.931249999999999
 20
2.6
 42
1.0
  0
LWPOLYLINE
  5
CD8
330
A
100
AcDbEntity
  8
0
 62
     7
100
AcDbPolyline
 90
        2
 70
     1
 43
0.005
 10
8.089999999999999
 20
2.6
 42
1.0
 10
7.909999999999999
 20
2.6
 42
1.0
  0
LWPOLYLINE
  5
CD9
330
A
100
AcDbEntity
  8
0
 62
     7
100
AcDbPolyline
 90
        2
 70
     1
 43
0.0025
 10
8.08875
 20
2.6
 42
1.0
 10
8.091249999999998
 20
2.6
 42
1.0
  0
LWPOLYLINE
  5
CDA
330
A
100
AcDbEntity
  8
0
 62
     7
100
AcDbPolyline
 90
        2
 70
     1
 43
0.0025
 10
7.908749999999999
 20
2.6
 42
1.0
 10
7.911249999999999
 20
2.6
 42
1.0
  0
LWPOLYLINE
  5
CDB
330
A
100
AcDbEntity
  8
0
 62
     7
100
AcDbPolyline
 90
        2
 70
     1
 43
0.005
 10
8.109999999999999
 20
2.6
 42
1.0
 10
7.889999999999998
 20
2.6
 42
1.0
  0
LWPOLYLINE
  5
CDC
330
A
100
AcDbEntity
  8
0
 62
     7
100
AcDbPolyline
 90
        2
 70
     1
 43
0.0025
 10
8.10875
 20
2.6
 42
1.0
 10
8.111249999999998
 20
2.6
 42
1.0
  0
LWPOLYLINE
  5
CDD
330
A
100
AcDbEntity
  8
0
 62
     7
100
AcDbPolyline
 90
        2
 70
     1
 43
0.0025
 10
7.888749999999999
 20
2.6
 42
1.0
 10
7.891249999999999
 20
2.6
 42
1.0
  0
LWPOLYLINE
  5
CDE
330
A
100
AcDbEntity
  8
0
 62
     7
100
AcDbPolyline
 90
        2
 70
     1
 43
0.005
 10
8.129999999999999
 20
2.6
 42
1.0
 10
7.869999999999999
 20
2.6
 42
1.0
  0
LWPOLYLINE
  5
CDF
330
A
100
AcDbEntity
  8
0
 62
     7
100
AcDbPolyline
 90
        2
 70
     1
 43
0.0025
 10
8.12875
 20
2.6
 42
1.0
 10
8.131249999999997
 20
2.6
 42
1.0
  0
LWPOLYLINE
  5
CE0
330
A
100
AcDbEntity
  8
0
 62
     7
100
AcDbPolyline
 90
        2
 70
     1
 43
0.0025
 10
7.868749999999999
 20
2.6
 42
1.0
 10
7.871249999999998
 20
2.6
 42
1.0
  0
LWPOLYLINE
  5
CE1
330
A
100
AcDbEntity
  8
0
 62
     7
100
AcDbPolyline
 90
        2
 70
     1
 43
0.005
 10
8.149999999999998
 20
2.6
 42
1.0
 10
7.849999999999998
 20
2.6
 42
1.0
  0
LWPOLYLINE
  5
CE2
330
A
100
AcDbEntity
  8
0
 62
     7
100
AcDbPolyline
 90
        2
 70
     1
 43
0.0025
 10
8.148749999999999
 20
2.6
 42
1.0
 10
8.15125
 20
2.6
 42
1.0
  0
LWPOLYLINE
  5
CE3
330
A
100
AcDbEntity
  8
0
 62
     7
100
AcDbPolyline
 90
        2
 70
     1
 43
0.0025
 10
7.848749999999999
 20
2.6
 42
1.0
 10
7.851249999999999
 20
2.6
 42
1.0
  0
LWPOLYLINE
  5
CE4
330
A
100
AcDbEntity
  8
0
 62
     7
100
AcDbPolyline
 90
        2
 70
     1
 43
0.005
 10
8.169999999999998
 20
2.6
 42
1.0
 10
7.829999999999999
 20
2.6
 42
1.0
  0
LWPOLYLINE
  5
CE5
330
A
100
AcDbEntity
  8
0
 62
     7
100
AcDbPolyline
 90
        2
 70
     1
 43
0.0025
 10
8.168749999999999
 20
2.6
 42
1.0
 10
8.17125
 20
2.6
 42
1.0
  0
LWPOLYLINE
  5
CE6
330
A
100
AcDbEntity
  8
0
 62
     7
100
AcDbPolyline
 90
        2
 70
     1
 43
0.0025
 10
7.828749999999999
 20
2.6
 42
1.0
 10
7.831249999999998
 20
2.6
 42
1.0
  0
LWPOLYLINE
  5
CE7
330
A
100
AcDbEntity
  8
0
 62
     7
100
AcDbPolyline
 90
        2
 70
     1
 43
0.005
 10
8.190000000000001
 20
2.6
 42
1.0
 10
7.809999999999998
 20
2.6
 42
1.0
  0
LWPOLYLINE
  5
CE8
330
A
100
AcDbEntity
  8
0
 62
     7
100
AcDbPolyline
 90
        2
 70
     1
 43
0.0025
 10
8.188749999999998
 20
2.6
 42
1.0
 10
8.19125
 20
2.6
 42
1.0
  0
LWPOLYLINE
  5
CE9
330
A
100
AcDbEntity
  8
0
 62
     7
100
AcDbPolyline
 90
        2
 70
     1
 43
0.0025
 10
7.808749999999998
 20
2.6
 42
1.0
 10
7.811249999999999
 20
2.6
 42
1.0
  0
LWPOLYLINE
  5
CEA
330
A
100
AcDbEntity
  8
0
 62
     7
100
AcDbPolyline
 90
        2
 70
     1
 43
0.005
 10
8.21
 20
2.6
 42
1.0
 10
7.789999999999999
 20
2.6
 42
1.0
  0
LWPOLYLINE
  5
CEB
330
A
100
AcDbEntity
  8
0
 62
     7
100
AcDbPolyline
 90
        2
 70
     1
 43
0.0025
 10
8.208749999999998
 20
2.6
 42
1.0
 10
8.211249999999999
 20
2.6
 42
1.0
  0
LWPOLYLINE
  5
CEC
330
A
100
AcDbEntity
  8
0
 62
     7
100
AcDbPolyline
 90
        2
 70
     1
 43
0.0025
 10
7.788749999999999
 20
2.6
 42
1.0
 10
7.791249999999998
 20
2.6
 42
1.0
  0
LWPOLYLINE
  5
CED
330
A
100
AcDbEntity
  8
0
 62
     7
100
AcDbPolyline
 90
        2
 70
     1
 43
0.005
 10
8.23
 20
2.6
 42
1.0
 10
7.769999999999998
 20
2.6
 42
1.0
  0
LWPOLYLINE
  5
CEE
330
A
100
AcDbEntity
  8
0
 62
     7
100
AcDbPolyline
 90
        2
 70
     1
 43
0.0025
 10
8.228749999999998
 20
2.6
 42
1.0
 10
8.231249999999999
 20
2.6
 42
1.0
  0
LWPOLYLINE
  5
CEF
330
A
100
AcDbEntity
  8
0
 62
     7
100
AcDbPolyline
 90
        2
 70
     1
 43
0.0025
 10
7.768749999999998
 20
2.6
 42
1.0
 10
7.771249999999999
 20
2.6
 42
1.0
  0
LWPOLYLINE
  5
CF0
330
A
100
AcDbEntity
  8
0
 62
     7
100
AcDbPolyline
 90
        2
 70
     1
 43
0.005
 10
8.25
 20
2.6
 42
1.0
 10
7.749999999999999
 20
2.6
 42
1.0
  0
LWPOLYLINE
  5
CF1
330
A
100
AcDbEntity
  8
0
 62
     7
100
AcDbPolyline
 90
        2
 70
     1
 43
0.0025
 10
8.248750000000001
 20
2.6
 42
1.0
 10
8.251249999999998
 20
2.6
 42
1.0
  0
LWPOLYLINE
  5
CF2
330
A
100
AcDbEntity
  8
0
 62
     7
100
AcDbPolyline
 90
        2
 70
     1
 43
0.0025
 10
7.748749999999999
 20
2.6
 42
1.0
 10
7.751249999999998
 20
2.6
 42
1.0
  0
LWPOLYLINE
  5
CF5
330
A
100
AcDbEntity
  8
0
 62
     7
100
AcDbPolyline
 90
        2
 70
     0
 43
0.005
 10
8.030000000000001
 20
0.6
 10
8.269999999999999
 20
0.6
  0
LWPOLYLINE
  5
CF6
330
A
100
AcDbEntity
  8
0
 62
     7
100
AcDbPolyline
 90
        2
 70
     1
 43
0.0025
 10
8.028749999999998
 20
0.6
 42
1.0
 10
8.03125
 20
0.6
 42
1.0
  0
LWPOLYLINE
  5
CF7
330
A
100
AcDbEntity
  8
0
 62
     7
100
AcDbPolyline
 90
        2
 70
     1
 43
0.0025
 10
8.26875
 20
0.6
 42
1.0
 10
8.27125
 20
0.6
 42
1.0
  0
LWPOLYLINE
  5
CF8
330
A
100
AcDbEntity
  8
0
 62
     7
100
AcDbPolyline
 90
        2
 70
     0
 43
0.005
 10
7.73
 20
0.6
 10
7.969999999999999
 20
0.6
  0
LWPOLYLINE
  5
CF9
330
A
100
AcDbEntity
  8
0
 62
     7
100
AcDbPolyline
 90
        2
 70
     1
 43
0.0025
 10
7.728749999999999
 20
0.6
 42
1.0
 10
7.73125
 20
0.6
 42
1.0
  0
LWPOLYLINE
  5
CFA
330
A
100
AcDbEntity
  8
0
 62
     7
100
AcDbPolyline
 90
        2
 70
     1
 43
0.0025
 10
7.96875
 20
0.6
 42
1.0
 10
7.97125
 20
0.6
 42
1.0
  0
LWPOLYLINE
  5
CFB
330
A
100
AcDbEntity
  8
0
 62
     7
100
AcDbPolyline
 90
        2
 70
     0
 43
0.005
 10
8.0
 20
0.63
 10
8.0
 20
0.8699999999999999
  0
LWPOLYLINE
  5
CFC
330
A
100
AcDbEntity
  8
0
 62
     7
100
AcDbPolyline
 90
        2
 70
     1
 43
0.0025
 10
7.99875
 20
0.63
 42
1.0
 10
8.001249999999998
 20
0.63
 42
1.0
  0
LWPOLYLINE
  5
CFD
330
A
100
AcDbEntity
  8
0
 62
     7
100
AcDbPolyline
 90
        2
 70
     1
 43
0.0025
 10
7.99875
 20
0.8699999999999999
 42
1.0
 10
8.001249999999998
 20
0.8699999999999999
 42
1.0
  0
LWPOLYLINE
  5
CFE
330
A
100
AcDbEntity
  8
0
 62
     7
100
AcDbPolyline
 90
        2
 70
     0
 43
0.005
 10
8.0
 20
0.33
 10
8.0
 20
0.57
  0
LWPOLYLINE
  5
CFF
330
A
100
AcDbEntity
  8
0
 62
     7
100
AcDbPolyline
 90
        2
 70
     1
 43
0.0025
 10
7.99875
 20
0.33
 42
1.0
 10
8.001249999999998
 20
0.33
 42
1.0
  0
LWPOLYLINE
  5
D00
330
A
100
AcDbEntity
  8
0
 62
     7
100
AcDbPolyline
 90
        2
 70
     1
 43
0.0025
 10
7.99875
 20
0.57
 42
1.0
 10
8.001249999999998
 20
0.57
 42
1.0
  0
LWPOLYLINE
  5
D01
330
A
100
AcDbEntity
  8
0
 62
     7
100
AcDbPolyline
 90
        2
 70
     1
 43
0.005
 10
8.25
 20
0.6
 42
1.0
 10
7.75
 20
0.6
 42
1.0
  0
LWPOLYLINE
  5
D02
330
A
100
AcDbEntity
  8
0
 62
     7
100
AcDbPolyline
 90
        2
 70
     1
 43
0.0025
 10
8.248750000000001
 20
0.6
 42
1.0
 10
8.251249999999998
 20
0.6
 42
1.0
  0
LWPOLYLINE
  5
D03
330
A
100
AcDbEntity
  8
0
 62
     7
100
AcDbPolyline
 90
        2
 70
     1
 43
0.0025
 10
7.74875
 20
0.6
 42
1.0
 10
7.751249999999999
 20
0.6
 42
1.0
  0
LWPOLYLINE
  5
D04
330
A
100
AcDbEntity
  8
0
 62
     7
100
AcDbPolyline
 90
        2
 70
     1
 43
0.005
 10
8.23
 20
0.6
 42
1.0
 10
7.769999999999999
 20
0.6
 42
1.0
  0
LWPOLYLINE
  5
D05
330
A
100
AcDbEntity
  8
0
 62
     7
100
AcDbPolyline
 90
        2
 70
     1
 43
0.0025
 10
8.228749999999999
 20
0.6
 42
1.0
 10
8.231249999999999
 20
0.6
 42
1.0
  0
LWPOLYLINE
  5
D06
330
A
100
AcDbEntity
  8
0
 62
     7
100
AcDbPolyline
 90
        2
 70
     1
 43
0.0025
 10
7.768749999999999
 20
0.6
 42
1.0
 10
7.77125
 20
0.6
 42
1.0
  0
LWPOLYLINE
  5
D07
330
A
100
AcDbEntity
  8
0
 62
     7
100
AcDbPolyline
 90
        2
 70
     1
 43
0.005
 10
8.21
 20
0.6
 42
1.0
 10
7.79
 20
0.6
 42
1.0
  0
LWPOLYLINE
  5
D08
330
A
100
AcDbEntity
  8
0
 62
     7
100
AcDbPolyline
 90
        2
 70
     1
 43
0.0025
 10
8.20875
 20
0.6
 42
1.0
 10
8.211249999999999
 20
0.6
 42
1.0
  0
LWPOLYLINE
  5
D09
330
A
100
AcDbEntity
  8
0
 62
     7
100
AcDbPolyline
 90
        2
 70
     1
 43
0.0025
 10
7.78875
 20
0.6
 42
1.0
 10
7.791249999999999
 20
0.6
 42
1.0
  0
LWPOLYLINE
  5
D0A
330
A
100
AcDbEntity
  8
0
 62
     7
100
AcDbPolyline
 90
        2
 70
     1
 43
0.005
 10
8.190000000000001
 20
0.6
 42
1.0
 10
7.809999999999999
 20
0.6
 42
1.0
  0
LWPOLYLINE
  5
D0B
330
A
100
AcDbEntity
  8
0
 62
     7
100
AcDbPolyline
 90
        2
 70
     1
 43
0.0025
 10
8.188749999999998
 20
0.6
 42
1.0
 10
8.19125
 20
0.6
 42
1.0
  0
LWPOLYLINE
  5
D0C
330
A
100
AcDbEntity
  8
0
 62
     7
100
AcDbPolyline
 90
        2
 70
     1
 43
0.0025
 10
7.808749999999999
 20
0.6
 42
1.0
 10
7.81125
 20
0.6
 42
1.0
  0
LWPOLYLINE
  5
D0D
330
A
100
AcDbEntity
  8
0
 62
     7
100
AcDbPolyline
 90
        2
 70
     1
 43
0.005
 10
8.169999999999999
 20
0.6
 42
1.0
 10
7.83
 20
0.6
 42
1.0
  0
LWPOLYLINE
  5
D0E
330
A
100
AcDbEntity
  8
0
 62
     7
100
AcDbPolyline
 90
        2
 70
     1
 43
0.0025
 10
8.168749999999999
 20
0.6
 42
1.0
 10
8.17125
 20
0.6
 42
1.0
  0
LWPOLYLINE
  5
D0F
330
A
100
AcDbEntity
  8
0
 62
     7
100
AcDbPolyline
 90
        2
 70
     1
 43
0.0025
 10
7.82875
 20
0.6
 42
1.0
 10
7.831249999999999
 20
0.6
 42
1.0
  0
LWPOLYLINE
  5
D10
330
A
100
AcDbEntity
  8
0
 62
     7
100
AcDbPolyline
 90
        2
 70
     1
 43
0.005
 10
8.15
 20
0.6
 42
1.0
 10
7.849999999999999
 20
0.6
 42
1.0
  0
LWPOLYLINE
  5
D11
330
A
100
AcDbEntity
  8
0
 62
     7
100
AcDbPolyline
 90
        2
 70
     1
 43
0.0025
 10
8.148749999999999
 20
0.6
 42
1.0
 10
8.15125
 20
0.6
 42
1.0
  0
LWPOLYLINE
  5
D12
330
A
100
AcDbEntity
  8
0
 62
     7
100
AcDbPolyline
 90
        2
 70
     1
 43
0.0025
 10
7.848749999999999
 20
0.6
 42
1.0
 10
7.85125
 20
0.6
 42
1.0
  0
LWPOLYLINE
  5
D13
330
A
100
AcDbEntity
  8
0
 62
     7
100
AcDbPolyline
 90
        2
 70
     1
 43
0.005
 10
8.129999999999999
 20
0.6
 42
1.0
 10
7.87
 20
0.6
 42
1.0
  0
LWPOLYLINE
  5
D14
330
A
100
AcDbEntity
  8
0
 62
     7
100
AcDbPolyline
 90
        2
 70
     1
 43
0.0025
 10
8.12875
 20
0.6
 42
1.0
 10
8.131249999999999
 20
0.6
 42
1.0
  0
LWPOLYLINE
  5
D15
330
A
100
AcDbEntity
  8
0
 62
     7
100
AcDbPolyline
 90
        2
 70
     1
 43
0.0025
 10
7.86875
 20
0.6
 42
1.0
 10
7.871249999999999
 20
0.6
 42
1.0
  0
LWPOLYLINE
  5
D16
330
A
100
AcDbEntity
  8
0
 62
     7
100
AcDbPolyline
 90
        2
 70
     1
 43
0.005
 10
8.109999999999999
 20
0.6
 42
1.0
 10
7.889999999999999
 20
0.6
 42
1.0
  0
LWPOLYLINE
  5
D17
330
A
100
AcDbEntity
  8
0
 62
     7
100
AcDbPolyline
 90
        2
 70
     1
 43
0.0025
 10
8.10875
 20
0.6
 42
1.0
 10
8.11125
 20
0.6
 42
1.0
  0
LWPOLYLINE
  5
D18
330
A
100
AcDbEntity
  8
0
 62
     7
100
AcDbPolyline
 90
        2
 70
     1
 43
0.0025
 10
7.888749999999999
 20
0.6
 42
1.0
 10
7.89125
 20
0.6
 42
1.0
  0
LWPOLYLINE
  5
D19
330
A
100
AcDbEntity
  8
0
 62
     7
100
AcDbPolyline
 90
        2
 70
     1
 43
0.005
 10
8.089999999999999
 20
0.6
 42
1.0
 10
7.91
 20
0.6
 42
1.0
  0
LWPOLYLINE
  5
D1A
330
A
100
AcDbEntity
  8
0
 62
     7
100
AcDbPolyline
 90
        2
 70
     1
 43
0.0025
 10
8.08875
 20
0.6
 42
1.0
 10
8.091249999999998
 20
0.6
 42
1.0
  0
LWPOLYLINE
  5
D1B
330
A
100
AcDbEntity
  8
0
 62
     7
100
AcDbPolyline
 90
        2
 70
     1
 43
0.0025
 10
7.90875
 20
0.6
 42
1.0
 10
7.911249999999999
 20
0.6
 42
1.0
  0
LWPOLYLINE
  5
D1C
330
A
100
AcDbEntity
  8
0
 62
     7
100
AcDbPolyline
 90
        2
 70
     1
 43
0.005
 10
8.07
 20
0.6
 42
1.0
 10
7.929999999999999
 20
0.6
 42
1.0
  0
LWPOLYLINE
  5
D1D
330
A
100
AcDbEntity
  8
0
 62
     7
100
AcDbPolyline
 90
        2
 70
     1
 43
0.0025
 10
8.068749999999999
 20
0.6
 42
1.0
 10
8.071249999999999
 20
0.6
 42
1.0
  0
LWPOLYLINE
  5
D1E
330
A
100
AcDbEntity
  8
0
 62
     7
100
AcDbPolyline
 90
        2
 70
     1
 43
0.0025
 10
7.928749999999999
 20
0.6
 42
1.0
 10
7.93125
 20
0.6
 42
1.0
  0
LWPOLYLINE
  5
D1F
330
A
100
AcDbEntity
  8
0
 62
     7
100
AcDbPolyline
 90
        2
 70
     1
 43
0.005
 10
8.05
 20
0.6
 42
1.0
 10
7.95
 20
0.6
 42
1.0
  0
LWPOLYLINE
  5
D20
330
A
100
AcDbEntity
  8
0
 62
     7
100
AcDbPolyline
 90
        2
 70
     1
 43
0.0025
 10
8.04875
 20
0.6
 42
1.0
 10
8.051249999999999
 20
0.6
 42
1.0
  0
LWPOLYLINE
  5
D21
330
A
100
AcDbEntity
  8
0
 62
     7
100
AcDbPolyline
 90
        2
 70
     1
 43
0.0025
 10
7.94875
 20
0.6
 42
1.0
 10
7.951249999999999
 20
0.6
 42
1.0
  0
LWPOLYLINE
  5
D22
330
A
100
AcDbEntity
  8
0
 62
     7
100
AcDbPolyline
 90
        2
 70
     0
 43
0.005
 10
1.0
 20
0.33
 10
1.0
 20
0.57
  0
LWPOLYLINE
  5
D23
330
A
100
AcDbEntity
  8
0
 62
     7
100
AcDbPolyline
 90
        2
 70
     1
 43
0.0025
 10
0.99875
 20
0.33
 42
1.0
 10
1.001249999999999
 20
0.33
 42
1.0
  0
LWPOLYLINE
  5
D24
330
A
100
AcDbEntity
  8
0
 62
     7
100
AcDbPolyline
 90
        2
 70
     1
 43
0.0025
 10
0.99875
 20
0.57
 42
1.0
 10
1.001249999999999
 20
0.57
 42
1.0
  0
LWPOLYLINE
  5
D25
330
A
100
AcDbEntity
  8
0
 62
     7
100
AcDbPolyline
 90
        2
 70
     0
 43
0.005
 10
1.0
 20
0.63
 10
1.0
 20
0.8699999999999999
  0
LWPOLYLINE
  5
D26
330
A
100
AcDbEntity
  8
0
 62
     7
100
AcDbPolyline
 90
        2
 70
     1
 43
0.0025
 10
0.99875
 20
0.63
 42
1.0
 10
1.001249999999999
 20
0.63
 42
1.0
  0
LWPOLYLINE
  5
D27
330
A
100
AcDbEntity
  8
0
 62
     7
100
AcDbPolyline
 90
        2
 70
     1
 43
0.0025
 10
0.99875
 20
0.8699999999999999
 42
1.0
 10
1.001249999999999
 20
0.8699999999999999
 42
1.0
  0
LWPOLYLINE
  5
D28
330
A
100
AcDbEntity
  8
0
 62
     7
100
AcDbPolyline
 90
        2
 70
     0
 43
0.005
 10
0.73
 20
0.6
 10
0.9699999999999999
 20
0.6
  0
LWPOLYLINE
  5
D29
330
A
100
AcDbEntity
  8
0
 62
     7
100
AcDbPolyline
 90
        2
 70
     1
 43
0.0025
 10
0.72875
 20
0.6
 42
1.0
 10
0.73125
 20
0.6
 42
1.0
  0
LWPOLYLINE
  5
D2A
330
A
100
AcDbEntity
  8
0
 62
     7
100
AcDbPolyline
 90
        2
 70
     1
 43
0.0025
 10
0.96875
 20
0.6
 42
1.0
 10
0.9712499999999998
 20
0.6
 42
1.0
  0
LWPOLYLINE
  5
D2B
330
A
100
AcDbEntity
  8
0
 62
     7
100
AcDbPolyline
 90
        2
 70
     0
 43
0.005
 10
1.03
 20
0.6
 10
1.27
 20
0.6
  0
LWPOLYLINE
  5
D2C
330
A
100
AcDbEntity
  8
0
 62
     7
100
AcDbPolyline
 90
        2
 70
     1
 43
0.0025
 10
1.02875
 20
0.6
 42
1.0
 10
1.03125
 20
0.6
 42
1.0
  0
LWPOLYLINE
  5
D2E
330
A
100
AcDbEntity
  8
0
 62
     7
100
AcDbPolyline
 90
        2
 70
     1
 43
0.005
 10
1.05
 20
0.6
 42
1.0
 10
0.95
 20
0.6
 42
1.0
  0
LWPOLYLINE
  5
D2F
330
A
100
AcDbEntity
  8
0
 62
     7
100
AcDbPolyline
 90
        2
 70
     1
 43
0.0025
 10
1.04875
 20
0.6
 42
1.0
 10
1.05125
 20
0.6
 42
1.0
  0
LWPOLYLINE
  5
D30
330
A
100
AcDbEntity
  8
0
 62
     7
100
AcDbPolyline
 90
        2
 70
     1
 43
0.0025
 10
0.94875
 20
0.6
 42
1.0
 10
0.9512500000000001
 20
0.6
 42
1.0
  0
LWPOLYLINE
  5
D31
330
A
100
AcDbEntity
  8
0
 62
     7
100
AcDbPolyline
 90
        2
 70
     1
 43
0.005
 10
1.07
 20
0.6
 42
1.0
 10
0.9299999999999998
 20
0.6
 42
1.0
  0
LWPOLYLINE
  5
D32
330
A
100
AcDbEntity
  8
0
 62
     7
100
AcDbPolyline
 90
        2
 70
     1
 43
0.0025
 10
1.06875
 20
0.6
 42
1.0
 10
1.07125
 20
0.6
 42
1.0
  0
LWPOLYLINE
  5
D33
330
A
100
AcDbEntity
  8
0
 62
     7
100
AcDbPolyline
 90
        2
 70
     1
 43
0.0025
 10
0.9287499999999999
 20
0.6
 42
1.0
 10
0.93125
 20
0.6
 42
1.0
  0
LWPOLYLINE
  5
D34
330
A
100
AcDbEntity
  8
0
 62
     7
100
AcDbPolyline
 90
        2
 70
     1
 43
0.005
 10
1.09
 20
0.6
 42
1.0
 10
0.9099999999999999
 20
0.6
 42
1.0
  0
LWPOLYLINE
  5
D35
330
A
100
AcDbEntity
  8
0
 62
     7
100
AcDbPolyline
 90
        2
 70
     1
 43
0.0025
 10
1.08875
 20
0.6
 42
1.0
 10
1.09125
 20
0.6
 42
1.0
  0
LWPOLYLINE
  5
D36
330
A
100
AcDbEntity
  8
0
 62
     7
100
AcDbPolyline
 90
        2
 70
     1
 43
0.0025
 10
0.9087499999999998
 20
0.6
 42
1.0
 10
0.91125
 20
0.6
 42
1.0
  0
LWPOLYLINE
  5
D37
330
A
100
AcDbEntity
  8
0
 62
     7
100
AcDbPolyline
 90
        2
 70
     1
 43
0.005
 10
1.11
 20
0.6
 42
1.0
 10
0.89
 20
0.6
 42
1.0
  0
LWPOLYLINE
  5
D38
330
A
100
AcDbEntity
  8
0
 62
     7
100
AcDbPolyline
 90
        2
 70
     1
 43
0.0025
 10
1.108749999999999
 20
0.6
 42
1.0
 10
1.11125
 20
0.6
 42
1.0
  0
LWPOLYLINE
  5
D39
330
A
100
AcDbEntity
  8
0
 62
     7
100
AcDbPolyline
 90
        2
 70
     1
 43
0.0025
 10
0.8887500000000001
 20
0.6
 42
1.0
 10
0.8912499999999999
 20
0.6
 42
1.0
  0
LWPOLYLINE
  5
D3A
330
A
100
AcDbEntity
  8
0
 62
     7
100
AcDbPolyline
 90
        2
 70
     1
 43
0.005
 10
1.129999999999999
 20
0.6
 42
1.0
 10
0.8699999999999999
 20
0.6
 42
1.0
  0
LWPOLYLINE
  5
D3B
330
A
100
AcDbEntity
  8
0
 62
     7
100
AcDbPolyline
 90
        2
 70
     1
 43
0.0025
 10
1.128749999999999
 20
0.6
 42
1.0
 10
1.13125
 20
0.6
 42
1.0
  0
LWPOLYLINE
  5
D3C
330
A
100
AcDbEntity
  8
0
 62
     7
100
AcDbPolyline
 90
        2
 70
     1
 43
0.0025
 10
0.86875
 20
0.6
 42
1.0
 10
0.87125
 20
0.6
 42
1.0
  0
LWPOLYLINE
  5
D3D
330
A
100
AcDbEntity
  8
0
 62
     7
100
AcDbPolyline
 90
        2
 70
     1
 43
0.005
 10
1.149999999999999
 20
0.6
 42
1.0
 10
0.85
 20
0.6
 42
1.0
  0
LWPOLYLINE
  5
D3E
330
A
100
AcDbEntity
  8
0
 62
     7
100
AcDbPolyline
 90
        2
 70
     1
 43
0.0025
 10
1.148749999999999
 20
0.6
 42
1.0
 10
1.15125
 20
0.6
 42
1.0
  0
LWPOLYLINE
  5
D3F
330
A
100
AcDbEntity
  8
0
 62
     7
100
AcDbPolyline
 90
        2
 70
     1
 43
0.0025
 10
0.84875
 20
0.6
 42
1.0
 10
0.8512500000000001
 20
0.6
 42
1.0
  0
LWPOLYLINE
  5
D40
330
A
100
AcDbEntity
  8
0
 62
     7
100
AcDbPolyline
 90
        2
 70
     1
 43
0.005
 10
1.169999999999999
 20
0.6
 42
1.0
 10
0.8299999999999998
 20
0.6
 42
1.0
  0
LWPOLYLINE
  5
D41
330
A
100
AcDbEntity
  8
0
 62
     7
100
AcDbPolyline
 90
        2
 70
     1
 43
0.0025
 10
1.168749999999999
 20
0.6
 42
1.0
 10
1.17125
 20
0.6
 42
1.0
  0
LWPOLYLINE
  5
D42
330
A
100
AcDbEntity
  8
0
 62
     7
100
AcDbPolyline
 90
        2
 70
     1
 43
0.0025
 10
0.8287499999999999
 20
0.6
 42
1.0
 10
0.83125
 20
0.6
 42
1.0
  0
LWPOLYLINE
  5
D43
330
A
100
AcDbEntity
  8
0
 62
     7
100
AcDbPolyline
 90
        2
 70
     1
 43
0.005
 10
1.189999999999999
 20
0.6
 42
1.0
 10
0.8100000000000001
 20
0.6
 42
1.0
  0
LWPOLYLINE
  5
D44
330
A
100
AcDbEntity
  8
0
 62
     7
100
AcDbPolyline
 90
        2
 70
     1
 43
0.0025
 10
1.188749999999999
 20
0.6
 42
1.0
 10
1.191249999999999
 20
0.6
 42
1.0
  0
LWPOLYLINE
  5
D45
330
A
100
AcDbEntity
  8
0
 62
     7
100
AcDbPolyline
 90
        2
 70
     1
 43
0.0025
 10
0.80875
 20
0.6
 42
1.0
 10
0.81125
 20
0.6
 42
1.0
  0
LWPOLYLINE
  5
D46
330
A
100
AcDbEntity
  8
0
 62
     7
100
AcDbPolyline
 90
        2
 70
     1
 43
0.005
 10
1.209999999999999
 20
0.6
 42
1.0
 10
0.7900000000000001
 20
0.6
 42
1.0
  0
LWPOLYLINE
  5
D47
330
A
100
AcDbEntity
  8
0
 62
     7
100
AcDbPolyline
 90
        2
 70
     1
 43
0.0025
 10
1.208749999999999
 20
0.5
 42
1.0
 10
1.211249999999999
 20
0.5
 42
1.0
  0
LWPOLYLINE
  5
D48
330
A
100
AcDbEntity
  8
0
 62
     7
100
AcDbPolyline
 90
        2
 70
     1
 43
0.0025
 10
0.7887500000000001
 20
0.6
 42
1.0
 10
0.79125
 20
0.6
 42
1.0
  0
LWPOLYLINE
  5
D49
330
A
100
AcDbEntity
  8
0
 62
     7
100
AcDbPolyline
 90
        2
 70
     1
 43
0.005
 10
1.229999999999999
 20
0.6
 42
1.0
 10
0.7700000000000001
 20
0.6
 42
1.0
  0
LWPOLYLINE
  5
D4B
330
A
100
AcDbEntity
  8
0
 62
     7
100
AcDbPolyline
 90
        2
 70
     1
 43
0.0025
 10
0.76875
 20
0.6
 42
1.0
 10
0.7712500000000001
 20
0.6
 42
1.0
  0
LWPOLYLINE
  5
D4C
330
A
100
AcDbEntity
  8
0
 62
     7
100
AcDbPolyline
 90
        2
 70
     1
 43
0.005
 10
1.25
 20
0.6
 42
1.0
 10
0.75
 20
0.6
 42
1.0
  0
LWPOLYLINE
  5
D4E
330
A
100
AcDbEntity
  8
0
 62
     7
100
AcDbPolyline
 90
        2
 70
     1
 43
0.0025
 10
0.7487500000000001
 20
0.6
 42
1.0
 10
0.75125
 20
0.6
 42
1.0
  0
LWPOLYLINE
  5
D7D
330
A
100
AcDbEntity
  8
0
  6
Continuous
100
AcDbPolyline
 90
        2
 70
   128
 43
0.4
 10
1.5
 20
2.2
 10
3.4
 20
2.2
  0
LWPOLYLINE
  5
F23
330
A
100
AcDbEntity
  8
0
 62
     7
100
AcDbPolyline
 90
        2
 70
     1
 43
0.0045
 10
5.467554409984625
 20
1.641933984803552
 42
1.0
 10
5.470736390499965
 20
1.645115965318892
 42
1.0
  0
LWPOLYLINE
  5
F24
330
A
100
AcDbEntity
  8
0
 62
     7
100
AcDbPolyline
 90
        2
 70
     0
 43
0.009
 10
4.832749297174402
 20
1.007128871993328
 10
5.469145400242295
 20
1.643524975061222
  0
LWPOLYLINE
  5
F25
330
A
100
AcDbEntity
  8
0
 62
     7
100
AcDbPolyline
 90
        2
 70
     1
 43
0.0045
 10
4.831158306916732
 20
1.005537881735659
 42
1.0
 10
4.834340287432072
 20
1.008719862250998
 42
1.0
  0
LWPOLYLINE
  5
F26
330
A
100
AcDbEntity
  8
0
 62
     7
100
AcDbPolyline
 90
        2
 70
     1
 43
0.0045
 10
5.467554409984625
 20
1.641933984803552
 42
1.0
 10
5.470736390499965
 20
1.645115965318892
 42
1.0
  0
LWPOLYLINE
  5
F27
330
A
100
AcDbEntity
  8
0
 62
     7
100
AcDbPolyline
 90
        2
 70
     0
 43
0.009
 10
4.84547721923576
 20
0.9944009499319719
 10
5.481873322303652
 20
1.630797052999865
  0
LWPOLYLINE
  5
F28
330
A
100
AcDbEntity
  8
0
 62
     7
100
AcDbPolyline
 90
        2
 70
     1
 43
0.0045
 10
4.84388622897809
 20
0.992809959674302
 42
1.0
 10
4.847068209493428
 20
0.9959919401896417
 42
1.0
  0
LWPOLYLINE
  5
F29
330
A
100
AcDbEntity
  8
0
 62
     7
100
AcDbPolyline
 90
        2
 70
     1
 43
0.0045
 10
5.480282332045982
 20
1.629206062742195
 42
1.0
 10
5.483464312561322
 20
1.632388043257535
 42
1.0
  0
LWPOLYLINE
  5
F2A
330
A
100
AcDbEntity
  8
0
 62
     7
100
AcDbPolyline
 90
        2
 70
     1
 43
0.0045
 10
5.480282332045982
 20
1.629206062742195
 42
1.0
 10
5.483464312561322
 20
1.632388043257535
 42
1.0
  0
LWPOLYLINE
  5
F2B
330
A
100
AcDbEntity
  8
0
 62
     7
100
AcDbPolyline
 90
        2
 70
     1
 43
0.0045
 10
5.493010254107341
 20
1.616478140680836
 42
1.0
 10
5.496192234622681
 20
1.619660121196176
 42
1.0
  0
LWPOLYLINE
  5
F2C
330
A
100
AcDbEntity
  8
0
 62
     7
100
AcDbPolyline
 90
        2
 70
     0
 43
0.009
 10
4.858205141297117
 20
0.981673027870614
 10
5.494601244365011
 20
1.618069130938506
  0
LWPOLYLINE
  5
F2D
330
A
100
AcDbEntity
  8
0
 62
     7
100
AcDbPolyline
 90
        2
 70
     1
 43
0.0045
 10
4.856614151039448
 20
0.9800820376129442
 42
1.0
 10
4.859796131554787
 20
0.9832640181282839
 42
1.0
  0
LWPOLYLINE
  5
F2E
330
A
100
AcDbEntity
  8
0
 62
     7
100
AcDbPolyline
 90
        2
 70
     1
 43
0.0045
 10
5.493010254107341
 20
1.616478140680836
 42
1.0
 10
5.496192234622681
 20
1.619660121196176
 42
1.0
  0
LWPOLYLINE
  5
F2F
330
A
100
AcDbEntity
  8
0
 62
     7
100
AcDbPolyline
 90
        2
 70
     0
 43
0.009
 10
4.870933063358475
 20
0.9689451058092561
 10
5.507329166426368
 20
1.605341208877149
  0
LWPOLYLINE
  5
F30
330
A
100
AcDbEntity
  8
0
 62
     7
100
AcDbPolyline
 90
        2
 70
     1
 43
0.0045
 10
4.869342073100805
 20
0.9673541155515863
 42
1.0
 10
4.872524053616144
 20
0.970536096066926
 42
1.0
  0
LWPOLYLINE
  5
F31
330
A
100
AcDbEntity
  8
0
 62
     7
100
AcDbPolyline
 90
        2
 70
     1
 43
0.0045
 10
5.505738176168698
 20
1.603750218619479
 42
1.0
 10
5.508920156684038
 20
1.606932199134819
 42
1.0
  0
LWPOLYLINE
  5
F32
330
A
100
AcDbEntity
  8
0
 62
     7
100
AcDbPolyline
 90
        2
 70
     1
 43
0.0045
 10
5.505738176168698
 20
1.603750218619479
 42
1.0
 10
5.508920156684038
 20
1.606932199134819
 42
1.0
  0
LWPOLYLINE
  5
F33
330
A
100
AcDbEntity
  8
0
 62
     7
100
AcDbPolyline
 90
        2
 70
     1
 43
0.0045
 10
5.518466098230056
 20
1.591022296558121
 42
1.0
 10
5.521648078745395
 20
1.59420427707346
 42
1.0
  0
LWPOLYLINE
  5
F34
330
A
100
AcDbEntity
  8
0
 62
     7
100
AcDbPolyline
 90
        2
 70
     0
 43
0.009
 10
4.883660985419833
 20
0.9562171837478992
 10
5.520057088487726
 20
1.592613286815791
  0
LWPOLYLINE
  5
F35
330
A
100
AcDbEntity
  8
0
 62
     7
100
AcDbPolyline
 90
        2
 70
     1
 43
0.0045
 10
4.882069995162163
 20
0.9546261934902293
 42
1.0
 10
4.885251975677502
 20
0.957808174005569
 42
1.0
  0
LWPOLYLINE
  5
F36
330
A
100
AcDbEntity
  8
0
 62
     7
100
AcDbPolyline
 90
        2
 70
     1
 43
0.0045
 10
5.518466098230056
 20
1.591022296558121
 42
1.0
 10
5.521648078745395
 20
1.59420427707346
 42
1.0
  0
LWPOLYLINE
  5
F37
330
A
100
AcDbEntity
  8
0
 62
     7
100
AcDbPolyline
 90
        2
 70
     1
 43
0.004
 10
5.544098719048069
 20
1.565743229130702
 42
1.0
 10
5.546927146172814
 20
1.568571656255448
 42
1.0
  0
LWPOLYLINE
  5
F38
330
A
100
AcDbEntity
  8
0
 62
     7
100
AcDbPolyline
 90
        2
 70
     0
 43
0.008
 10
4.909116829542549
 20
0.9307613396251825
 10
5.545512932610442
 20
1.567157442693074
  0
LWPOLYLINE
  5
F39
330
A
100
AcDbEntity
  8
0
 62
     7
100
AcDbPolyline
 90
        2
 70
     1
 43
0.004
 10
4.907702615980175
 20
0.9293471260628098
 42
1.0
 10
4.910531043104922
 20
0.9321755531875552
 42
1.0
  0
LWPOLYLINE
  5
F3A
330
A
100
AcDbEntity
  8
0
 62
     7
100
AcDbPolyline
 90
        2
 70
     1
 43
0.004
 10
5.544098719048069
 20
1.565743229130702
 42
1.0
 10
5.546927146172814
 20
1.568571656255448
 42
1.0
  0
LWPOLYLINE
  5
F3B
330
A
100
AcDbEntity
  8
0
 62
     7
100
AcDbPolyline
 90
        2
 70
     0
 43
0.008
 10
4.920430538041534
 20
0.9194476311261983
 10
5.556826641109426
 20
1.55584373419409
  0
LWPOLYLINE
  5
F3C
330
A
100
AcDbEntity
  8
0
 62
     7
100
AcDbPolyline
 90
        2
 70
     1
 43
0.004
 10
4.91901632447916
 20
0.9180334175638247
 42
1.0
 10
4.921844751603907
 20
0.920861844688571
 42
1.0
  0
LWPOLYLINE
  5
F3D
330
A
100
AcDbEntity
  8
0
 62
     7
100
AcDbPolyline
 90
        2
 70
     1
 43
0.004
 10
5.555412427547054
 20
1.554429520631718
 42
1.0
 10
5.558240854671799
 20
1.557257947756463
 42
1.0
  0
LWPOLYLINE
  5
F3E
330
A
100
AcDbEntity
  8
0
 62
     7
100
AcDbPolyline
 90
        2
 70
     1
 43
0.004
 10
5.555412427547054
 20
1.554429520631718
 42
1.0
 10
5.558240854671799
 20
1.557257947756463
 42
1.0
  0
LWPOLYLINE
  5
F3F
330
A
100
AcDbEntity
  8
0
 62
     7
100
AcDbPolyline
 90
        2
 70
     1
 43
0.004
 10
5.566726136046038
 20
1.543115812132732
 42
1.0
 10
5.569554563170784
 20
1.545944239257478
 42
1.0
  0
LWPOLYLINE
  5
F40
330
A
100
AcDbEntity
  8
0
 62
     7
100
AcDbPolyline
 90
        2
 70
     0
 43
0.008
 10
4.931744246540518
 20
0.9081339226272131
 10
5.568140349608411
 20
1.544530025695106
  0
LWPOLYLINE
  5
F41
330
A
100
AcDbEntity
  8
0
 62
     7
100
AcDbPolyline
 90
        2
 70
     1
 43
0.004
 10
4.930330032978146
 20
0.9067197090648395
 42
1.0
 10
4.933158460102891
 20
0.9095481361895867
 42
1.0
  0
LWPOLYLINE
  5
F42
330
A
100
AcDbEntity
  8
0
 62
     7
100
AcDbPolyline
 90
        2
 70
     1
 43
0.004
 10
5.566726136046038
 20
1.543115812132732
 42
1.0
 10
5.569554563170784
 20
1.545944239257478
 42
1.0
  0
LWPOLYLINE
  5
F43
330
A
100
AcDbEntity
  8
0
 62
     7
100
AcDbPolyline
 90
        2
 70
     0
 43
0.008
 10
4.943057955039503
 20
0.8968202141282279
 10
5.579454058107396
 20
1.533216317196121
  0
LWPOLYLINE
  5
F44
330
A
100
AcDbEntity
  8
0
 62
     7
100
AcDbPolyline
 90
        2
 70
     1
 43
0.004
 10
4.94164374147713
 20
0.8954060005658552
 42
1.0
 10
4.944472168601876
 20
0.8982344276906015
 42
1.0
  0
LWPOLYLINE
  5
F45
330
A
100
AcDbEntity
  8
0
 62
     7
100
AcDbPolyline
 90
        2
 70
     1
 43
0.004
 10
5.578039844545022
 20
1.531802103633747
 42
1.0
 10
5.580868271669769
 20
1.534630530758493
 42
1.0
  0
LWPOLYLINE
  5
F46
330
A
100
AcDbEntity
  8
0
 62
     7
100
AcDbPolyline
 90
        2
 70
     1
 43
0.004
 10
5.578039844545022
 20
1.531802103633747
 42
1.0
 10
5.580868271669769
 20
1.534630530758493
 42
1.0
  0
LWPOLYLINE
  5
F47
330
A
100
AcDbEntity
  8
0
 62
     7
100
AcDbPolyline
 90
        2
 70
     1
 43
0.004
 10
5.589353553044007
 20
1.520488395134763
 42
1.0
 10
5.592181980168753
 20
1.523316822259509
 42
1.0
  0
LWPOLYLINE
  5
F48
330
A
100
AcDbEntity
  8
0
 62
     7
100
AcDbPolyline
 90
        2
 70
     0
 43
0.008
 10
4.954371663538488
 20
0.8855065056292437
 10
5.590767766606381
 20
1.521902608697136
  0
LWPOLYLINE
  5
F49
330
A
100
AcDbEntity
  8
0
 62
     7
100
AcDbPolyline
 90
        2
 70
     1
 43
0.004
 10
4.952957449976114
 20
0.884092292066871
 42
1.0
 10
4.955785877100861
 20
0.8869207191916164
 42
1.0
  0
LWPOLYLINE
  5
F4A
330
A
100
AcDbEntity
  8
0
 62
     7
100
AcDbPolyline
 90
        2
 70
     1
 43
0.004
 10
5.589353553044007
 20
1.520488395134763
 42
1.0
 10
5.592181980168753
 20
1.523316822259509
 42
1.0
  0
LWPOLYLINE
  5
F4B
330
A
100
AcDbEntity
  8
0
 62
     7
100
AcDbPolyline
 90
        2
 70
     1
 43
0.0035
 10
5.620643028111512
 20
1.489552473457852
 42
1.0
 10
5.623117901845665
 20
1.492027347192005
 42
1.0
  0
LWPOLYLINE
  5
F4C
330
A
100
AcDbEntity
  8
0
 62
     7
100
AcDbPolyline
 90
        2
 70
     0
 43
0.007
 10
4.985484361910696
 20
0.8543938072570362
 10
5.621880464978588
 20
1.490789910324928
  0
LWPOLYLINE
  5
F4D
330
A
100
AcDbEntity
  8
0
 62
     7
100
AcDbPolyline
 90
        2
 70
     1
 43
0.0035
 10
4.984246925043619
 20
0.8531563703899589
 42
1.0
 10
4.986721798777772
 20
0.8556312441241118
 42
1.0
  0
LWPOLYLINE
  5
F4E
330
A
100
AcDbEntity
  8
0
 62
     7
100
AcDbPolyline
 90
        2
 70
     1
 43
0.0035
 10
5.620643028111512
 20
1.489552473457852
 42
1.0
 10
5.623117901845665
 20
1.492027347192005
 42
1.0
  0
LWPOLYLINE
  5
F4F
330
A
100
AcDbEntity
  8
0
 62
     7
100
AcDbPolyline
 90
        2
 70
     0
 43
0.007
 10
4.995383856847308
 20
0.8444943123204238
 10
5.631779959915201
 20
1.480890415388316
  0
LWPOLYLINE
  5
F50
330
A
100
AcDbEntity
  8
0
 62
     7
100
AcDbPolyline
 90
        2
 70
     1
 43
0.0035
 10
4.994146419980231
 20
0.8432568754533473
 42
1.0
 10
4.996621293714384
 20
0.8457317491875002
 42
1.0
  0
LWPOLYLINE
  5
F51
330
A
100
AcDbEntity
  8
0
 62
     7
100
AcDbPolyline
 90
        2
 70
     1
 43
0.0035
 10
5.630542523048124
 20
1.47965297852124
 42
1.0
 10
5.633017396782276
 20
1.482127852255393
 42
1.0
  0
LWPOLYLINE
  5
F52
330
A
100
AcDbEntity
  8
0
 62
     7
100
AcDbPolyline
 90
        2
 70
     1
 43
0.0035
 10
5.630542523048124
 20
1.47965297852124
 42
1.0
 10
5.633017396782276
 20
1.482127852255393
 42
1.0
  0
LWPOLYLINE
  5
F53
330
A
100
AcDbEntity
  8
0
 62
     7
100
AcDbPolyline
 90
        2
 70
     1
 43
0.0035
 10
5.640442017984735
 20
1.469753483584629
 42
1.0
 10
5.642916891718888
 20
1.472228357318781
 42
1.0
  0
LWPOLYLINE
  5
F54
330
A
100
AcDbEntity
  8
0
 62
     7
100
AcDbPolyline
 90
        2
 70
     0
 43
0.007
 10
5.005283351783919
 20
0.8345948173838122
 10
5.641679454851812
 20
1.470990920451704
  0
LWPOLYLINE
  5
F55
330
A
100
AcDbEntity
  8
0
 62
     7
100
AcDbPolyline
 90
        2
 70
     1
 43
0.0035
 10
5.004045914916843
 20
0.8333573805167358
 42
1.0
 10
5.006520788650996
 20
0.8358322542508886
 42
1.0
  0
LWPOLYLINE
  5
F56
330
A
100
AcDbEntity
  8
0
 62
     7
100
AcDbPolyline
 90
        2
 70
     1
 43
0.0035
 10
5.640442017984735
 20
1.469753483584629
 42
1.0
 10
5.642916891718888
 20
1.472228357318781
 42
1.0
  0
LWPOLYLINE
  5
F57
330
A
100
AcDbEntity
  8
0
 62
     7
100
AcDbPolyline
 90
        2
 70
     0
 43
0.007
 10
5.015182846720531
 20
0.8246953224471997
 10
5.651578949788424
 20
1.461091425515093
  0
LWPOLYLINE
  5
F58
330
A
100
AcDbEntity
  8
0
 62
     7
100
AcDbPolyline
 90
        2
 70
     1
 43
0.0035
 10
5.013945409853455
 20
0.8234578855801242
 42
1.0
 10
5.016420283587608
 20
0.8259327593142771
 42
1.0
  0
LWPOLYLINE
  5
F59
330
A
100
AcDbEntity
  8
0
 62
     7
100
AcDbPolyline
 90
        2
 70
     1
 43
0.0035
 10
5.650341512921348
 20
1.459853988648016
 42
1.0
 10
5.652816386655501
 20
1.462328862382168
 42
1.0
  0
LWPOLYLINE
  5
F5A
330
A
100
AcDbEntity
  8
0
 62
     7
100
AcDbPolyline
 90
        2
 70
     1
 43
0.0035
 10
5.650341512921348
 20
1.459853988648016
 42
1.0
 10
5.652816386655501
 20
1.462328862382168
 42
1.0
  0
LWPOLYLINE
  5
F5B
330
A
100
AcDbEntity
  8
0
 62
     7
100
AcDbPolyline
 90
        2
 70
     1
 43
0.0035
 10
5.660241007857958
 20
1.449954493711405
 42
1.0
 10
5.662715881592111
 20
1.452429367445558
 42
1.0
  0
LWPOLYLINE
  5
F5C
330
A
100
AcDbEntity
  8
0
 62
     7
100
AcDbPolyline
 90
        2
 70
     0
 43
0.007
 10
5.025082341657142
 20
0.814795827510589
 10
5.661478444725036
 20
1.451191930578481
  0
LWPOLYLINE
  5
F5D
330
A
100
AcDbEntity
  8
0
 62
     7
100
AcDbPolyline
 90
        2
 70
     1
 43
0.0035
 10
5.023844904790066
 20
0.8135583906435126
 42
1.0
 10
5.026319778524219
 20
0.8160332643776655
 42
1.0
  0
LWPOLYLINE
  5
F5E
330
A
100
AcDbEntity
  8
0
 62
     7
100
AcDbPolyline
 90
        2
 70
     1
 43
0.0035
 10
5.660241007857958
 20
1.449954493711405
 42
1.0
 10
5.662715881592111
 20
1.452429367445558
 42
1.0
  0
LWPOLYLINE
  5
F5F
330
A
100
AcDbEntity
  8
0
 62
     7
100
AcDbPolyline
 90
        2
 70
     1
 43
0.003
 10
5.697187337174955
 20
1.413361717785001
 42
1.0
 10
5.699308657518516
 20
1.41548303812856
 42
1.0
  0
LWPOLYLINE
  5
F60
330
A
100
AcDbEntity
  8
0
 62
     7
100
AcDbPolyline
 90
        2
 70
     0
 43
0.006
 10
5.061851894278843
 20
0.7780262748888882
 10
5.698247997346737
 20
1.41442237795678
  0
LWPOLYLINE
  5
F61
330
A
100
AcDbEntity
  8
0
 62
     7
100
AcDbPolyline
 90
        2
 70
     1
 43
0.003
 10
5.060791234107064
 20
0.776965614717108
 42
1.0
 10
5.062912554450623
 20
0.7790869350606684
 42
1.0
  0
LWPOLYLINE
  5
F62
330
A
100
AcDbEntity
  8
0
 62
     7
100
AcDbPolyline
 90
        2
 70
     1
 43
0.003
 10
5.697187337174955
 20
1.413361717785001
 42
1.0
 10
5.699308657518516
 20
1.41548303812856
 42
1.0
  0
LWPOLYLINE
  5
F63
330
A
100
AcDbEntity
  8
0
 62
     7
100
AcDbPolyline
 90
        2
 70
     0
 43
0.006
 10
5.070337175653081
 20
0.7695409935146494
 10
5.706733278720975
 20
1.405937096582542
  0
LWPOLYLINE
  5
F64
330
A
100
AcDbEntity
  8
0
 62
     7
100
AcDbPolyline
 90
        2
 70
     1
 43
0.003
 10
5.069276515481302
 20
0.7684803333428701
 42
1.0
 10
5.071397835824861
 20
0.7706016536864296
 42
1.0
  0
LWPOLYLINE
  5
F65
330
A
100
AcDbEntity
  8
0
 62
     7
100
AcDbPolyline
 90
        2
 70
     1
 43
0.003
 10
5.705672618549194
 20
1.404876436410762
 42
1.0
 10
5.707793938892754
 20
1.406997756754321
 42
1.0
  0
LWPOLYLINE
  5
F66
330
A
100
AcDbEntity
  8
0
 62
     7
100
AcDbPolyline
 90
        2
 70
     1
 43
0.003
 10
5.705672618549194
 20
1.404876436410762
 42
1.0
 10
5.707793938892754
 20
1.406997756754321
 42
1.0
  0
LWPOLYLINE
  5
F67
330
A
100
AcDbEntity
  8
0
 62
     7
100
AcDbPolyline
 90
        2
 70
     1
 43
0.003
 10
5.714157899923433
 20
1.396391155036523
 42
1.0
 10
5.716279220266994
 20
1.398512475380083
 42
1.0
  0
LWPOLYLINE
  5
F68
330
A
100
AcDbEntity
  8
0
 62
     7
100
AcDbPolyline
 90
        2
 70
     0
 43
0.006
 10
5.078822457027321
 20
0.7610557121404114
 10
5.715218560095213
 20
1.397451815208303
  0
LWPOLYLINE
  5
F69
330
A
100
AcDbEntity
  8
0
 62
     7
100
AcDbPolyline
 90
        2
 70
     1
 43
0.003
 10
5.077761796855541
 20
0.7599950519686312
 42
1.0
 10
5.0798831171991
 20
0.7621163723121907
 42
1.0
  0
LWPOLYLINE
  5
F6A
330
A
100
AcDbEntity
  8
0
 62
     7
100
AcDbPolyline
 90
        2
 70
     1
 43
0.003
 10
5.714157899923433
 20
1.396391155036523
 42
1.0
 10
5.716279220266994
 20
1.398512475380083
 42
1.0
  0
LWPOLYLINE
  5
F6B
330
A
100
AcDbEntity
  8
0
 62
     7
100
AcDbPolyline
 90
        2
 70
     0
 43
0.006
 10
5.087307738401559
 20
0.7525704307661734
 10
5.723703841469451
 20
1.388966533834065
  0
LWPOLYLINE
  5
F6C
330
A
100
AcDbEntity
  8
0
 62
     7
100
AcDbPolyline
 90
        2
 70
     1
 43
0.003
 10
5.086247078229779
 20
0.7515097705943932
 42
1.0
 10
5.088368398573338
 20
0.7536310909379527
 42
1.0
  0
LWPOLYLINE
  5
F6D
330
A
100
AcDbEntity
  8
0
 62
     7
100
AcDbPolyline
 90
        2
 70
     1
 43
0.003
 10
5.722643181297671
 20
1.387905873662285
 42
1.0
 10
5.724764501641232
 20
1.390027194005845
 42
1.0
  0
LWPOLYLINE
  5
F6E
330
A
100
AcDbEntity
  8
0
 62
     7
100
AcDbPolyline
 90
        2
 70
     1
 43
0.003
 10
5.722643181297671
 20
1.387905873662285
 42
1.0
 10
5.724764501641232
 20
1.390027194005845
 42
1.0
  0
LWPOLYLINE
  5
F6F
330
A
100
AcDbEntity
  8
0
 62
     7
100
AcDbPolyline
 90
        2
 70
     1
 43
0.003
 10
5.73112846267191
 20
1.379420592288046
 42
1.0
 10
5.73324978301547
 20
1.381541912631606
 42
1.0
  0
LWPOLYLINE
  5
F70
330
A
100
AcDbEntity
  8
0
 62
     7
100
AcDbPolyline
 90
        2
 70
     0
 43
0.006
 10
5.095793019775797
 20
0.7440851493919336
 10
5.73218912284369
 20
1.380481252459826
  0
LWPOLYLINE
  5
F71
330
A
100
AcDbEntity
  8
0
 62
     7
100
AcDbPolyline
 90
        2
 70
     1
 43
0.003
 10
5.094732359604018
 20
0.7430244892201543
 42
1.0
 10
5.096853679947577
 20
0.7451458095637138
 42
1.0
  0
LWPOLYLINE
  5
F72
330
A
100
AcDbEntity
  8
0
 62
     7
100
AcDbPolyline
 90
        2
 70
     1
 43
0.003
 10
5.73112846267191
 20
1.379420592288046
 42
1.0
 10
5.73324978301547
 20
1.381541912631606
 42
1.0
  0
LWPOLYLINE
  5
F73
330
A
100
AcDbEntity
  8
0
 62
     7
100
AcDbPolyline
 90
        2
 70
     1
 43
0.0015
 10
5.926820264365288
 20
1.18478945076645
 42
1.0
 10
5.927880924537067
 20
1.185850110938229
 42
1.0
  0
LWPOLYLINE
  5
F74
330
A
100
AcDbEntity
  8
0
 62
     7
100
AcDbPolyline
 90
        2
 70
     0
 43
0.003
 10
5.290954491383285
 20
0.5489236777844475
 10
5.927350594451177
 20
1.185319780852339
  0
LWPOLYLINE
  5
F75
330
A
100
AcDbEntity
  8
0
 62
     7
100
AcDbPolyline
 90
        2
 70
     1
 43
0.0015
 10
5.290424161297394
 20
0.548393347698557
 42
1.0
 10
5.291484821469174
 20
0.5494540078703372
 42
1.0
  0
LWPOLYLINE
  5
F76
330
A
100
AcDbEntity
  8
0
 62
     7
100
AcDbPolyline
 90
        2
 70
     1
 43
0.0015
 10
5.926820264365288
 20
1.18478945076645
 42
1.0
 10
5.927880924537067
 20
1.185850110938229
 42
1.0
  0
LWPOLYLINE
  5
F77
330
A
100
AcDbEntity
  8
0
 62
     7
100
AcDbPolyline
 90
        2
 70
     0
 43
0.003
 10
5.295197132070404
 20
0.5446810370973277
 10
5.931593235138297
 20
1.18107714016522
  0
LWPOLYLINE
  5
F78
330
A
100
AcDbEntity
  8
0
 62
     7
100
AcDbPolyline
 90
        2
 70
     1
 43
0.0015
 10
5.294666801984513
 20
0.544150707011438
 42
1.0
 10
5.295727462156293
 20
0.5452113671832173
 42
1.0
  0
LWPOLYLINE
  5
F79
330
A
100
AcDbEntity
  8
0
 62
     7
100
AcDbPolyline
 90
        2
 70
     1
 43
0.0015
 10
5.931062905052407
 20
1.18054681007933
 42
1.0
 10
5.932123565224186
 20
1.18160747025111
 42
1.0
  0
LWPOLYLINE
  5
F7A
330
A
100
AcDbEntity
  8
0
 62
     7
100
AcDbPolyline
 90
        2
 70
     1
 43
0.0015
 10
5.931062905052407
 20
1.18054681007933
 42
1.0
 10
5.932123565224186
 20
1.18160747025111
 42
1.0
  0
LWPOLYLINE
  5
F7B
330
A
100
AcDbEntity
  8
0
 62
     7
100
AcDbPolyline
 90
        2
 70
     1
 43
0.0015
 10
5.935305545739526
 20
1.17630416939221
 42
1.0
 10
5.936366205911306
 20
1.17736482956399
 42
1.0
  0
LWPOLYLINE
  5
F7C
330
A
100
AcDbEntity
  8
0
 62
     7
100
AcDbPolyline
 90
        2
 70
     0
 43
0.003
 10
5.299439772757523
 20
0.5404383964102087
 10
5.935835875825416
 20
1.176834499478101
  0
LWPOLYLINE
  5
F7D
330
A
100
AcDbEntity
  8
0
 62
     7
100
AcDbPolyline
 90
        2
 70
     1
 43
0.0015
 10
5.298909442671633
 20
0.5399080663243181
 42
1.0
 10
5.299970102843413
 20
0.5409687264960983
 42
1.0
  0
LWPOLYLINE
  5
F7E
330
A
100
AcDbEntity
  8
0
 62
     7
100
AcDbPolyline
 90
        2
 70
     1
 43
0.0015
 10
5.935305545739526
 20
1.17630416939221
 42
1.0
 10
5.936366205911306
 20
1.17736482956399
 42
1.0
  0
LWPOLYLINE
  5
F7F
330
A
100
AcDbEntity
  8
0
 62
     7
100
AcDbPolyline
 90
        2
 70
     0
 43
0.003
 10
5.303682413444642
 20
0.5361957557230897
 10
5.940078516512535
 20
1.172591858790982
  0
LWPOLYLINE
  5
F80
330
A
100
AcDbEntity
  8
0
 62
     7
100
AcDbPolyline
 90
        2
 70
     1
 43
0.0015
 10
5.303152083358752
 20
0.5356654256371991
 42
1.0
 10
5.304212743530532
 20
0.5367260858089793
 42
1.0
  0
LWPOLYLINE
  5
F81
330
A
100
AcDbEntity
  8
0
 62
     7
100
AcDbPolyline
 90
        2
 70
     1
 43
0.0015
 10
5.939548186426645
 20
1.172061528705091
 42
1.0
 10
5.940608846598425
 20
1.173122188876871
 42
1.0
  0
LWPOLYLINE
  5
F82
330
A
100
AcDbEntity
  8
0
 62
     7
100
AcDbPolyline
 90
        2
 70
     1
 43
0.0015
 10
5.939548186426645
 20
1.172061528705091
 42
1.0
 10
5.940608846598425
 20
1.173122188876871
 42
1.0
  0
LWPOLYLINE
  5
F83
330
A
100
AcDbEntity
  8
0
 62
     7
100
AcDbPolyline
 90
        2
 70
     1
 43
0.0015
 10
5.943790827113764
 20
1.167818888017972
 42
1.0
 10
5.944851487285545
 20
1.168879548189751
 42
1.0
  0
LWPOLYLINE
  5
F84
330
A
100
AcDbEntity
  8
0
 62
     7
100
AcDbPolyline
 90
        2
 70
     0
 43
0.003
 10
5.307925054131762
 20
0.5319531150359698
 10
5.944321157199654
 20
1.168349218103863
  0
LWPOLYLINE
  5
F85
330
A
100
AcDbEntity
  8
0
 62
     7
100
AcDbPolyline
 90
        2
 70
     1
 43
0.0015
 10
5.307394724045872
 20
0.5314227849500801
 42
1.0
 10
5.308455384217651
 20
0.5324834451218594
 42
1.0
  0
LWPOLYLINE
  5
F86
330
A
100
AcDbEntity
  8
0
 62
     7
100
AcDbPolyline
 90
        2
 70
     1
 43
0.0015
 10
5.943790827113764
 20
1.167818888017972
 42
1.0
 10
5.944851487285545
 20
1.168879548189751
 42
1.0
  0
LWPOLYLINE
  5
F87
330
A
100
AcDbEntity
  8
0
 62
     7
100
AcDbPolyline
 90
        2
 70
     1
 43
0.001
 10
6.003364573428731
 20
1.108598695093599
 42
1.0
 10
6.004071680209918
 20
1.109305801874786
 42
1.0
  0
LWPOLYLINE
  5
F88
330
A
100
AcDbEntity
  8
0
 62
     7
100
AcDbPolyline
 90
        2
 70
     0
 43
0.002
 10
5.367322023751432
 20
0.4725561454163003
 10
6.003718126819324
 20
1.108952248484192
  0
LWPOLYLINE
  5
F89
330
A
100
AcDbEntity
  8
0
 62
     7
100
AcDbPolyline
 90
        2
 70
     1
 43
0.001
 10
5.366968470360838
 20
0.472202592025707
 42
1.0
 10
5.367675577142025
 20
0.4729096988068937
 42
1.0
  0
LWPOLYLINE
  5
F8A
330
A
100
AcDbEntity
  8
0
 62
     7
100
AcDbPolyline
 90
        2
 70
     1
 43
0.001
 10
6.003364573428731
 20
1.108598695093599
 42
1.0
 10
6.004071680209918
 20
1.109305801874786
 42
1.0
  0
LWPOLYLINE
  5
F8B
330
A
100
AcDbEntity
  8
0
 62
     7
100
AcDbPolyline
 90
        2
 70
     0
 43
0.002
 10
5.370150450876177
 20
0.4697277182915541
 10
6.006546553944071
 20
1.106123821359446
  0
LWPOLYLINE
  5
F8C
330
A
100
AcDbEntity
  8
0
 62
     7
100
AcDbPolyline
 90
        2
 70
     1
 43
0.001
 10
5.369796897485585
 20
0.4693741649009607
 42
1.0
 10
5.370504004266771
 20
0.4700812716821475
 42
1.0
  0
LWPOLYLINE
  5
F8D
330
A
100
AcDbEntity
  8
0
 62
     7
100
AcDbPolyline
 90
        2
 70
     1
 43
0.001
 10
6.006193000553477
 20
1.105770267968853
 42
1.0
 10
6.006900107334664
 20
1.106477374750039
 42
1.0
  0
LWPOLYLINE
  5
F8E
330
A
100
AcDbEntity
  8
0
 62
     7
100
AcDbPolyline
 90
        2
 70
     1
 43
0.001
 10
6.006193000553477
 20
1.105770267968853
 42
1.0
 10
6.006900107334664
 20
1.106477374750039
 42
1.0
  0
LWPOLYLINE
  5
F8F
330
A
100
AcDbEntity
  8
0
 62
     7
100
AcDbPolyline
 90
        2
 70
     1
 43
0.001
 10
6.009021427678224
 20
1.102941840844106
 42
1.0
 10
6.00972853445941
 20
1.103648947625293
 42
1.0
  0
LWPOLYLINE
  5
F90
330
A
100
AcDbEntity
  8
0
 62
     7
100
AcDbPolyline
 90
        2
 70
     0
 43
0.002
 10
5.372978878000924
 20
0.4668992911668078
 10
6.009374981068816
 20
1.103295394234701
  0
LWPOLYLINE
  5
F91
330
A
100
AcDbEntity
  8
0
 62
     7
100
AcDbPolyline
 90
        2
 70
     1
 43
0.001
 10
5.37262532461033
 20
0.4665457377762144
 42
1.0
 10
5.373332431391517
 20
0.4672528445574012
 42
1.0
  0
LWPOLYLINE
  5
F92
330
A
100
AcDbEntity
  8
0
 62
     7
100
AcDbPolyline
 90
        2
 70
     1
 43
0.001
 10
6.009021427678224
 20
1.102941840844106
 42
1.0
 10
6.00972853445941
 20
1.103648947625293
 42
1.0
  0
LWPOLYLINE
  5
F93
330
A
100
AcDbEntity
  8
0
 62
     7
100
AcDbPolyline
 90
        2
 70
     0
 43
0.002
 10
5.37580730512567
 20
0.4640708640420615
 10
6.012203408193563
 20
1.100466967109953
  0
LWPOLYLINE
  5
F94
330
A
100
AcDbEntity
  8
0
 62
     7
100
AcDbPolyline
 90
        2
 70
     1
 43
0.001
 10
5.375453751735078
 20
0.4637173106514681
 42
1.0
 10
5.376160858516263
 20
0.4644244174326549
 42
1.0
  0
LWPOLYLINE
  5
F95
330
A
100
AcDbEntity
  8
0
 62
     7
100
AcDbPolyline
 90
        2
 70
     1
 43
0.001
 10
6.01184985480297
 20
1.10011341371936
 42
1.0
 10
6.012556961584157
 20
1.100820520500547
 42
1.0
  0
LWPOLYLINE
  5
F96
330
A
100
AcDbEntity
  8
0
 62
     7
100
AcDbPolyline
 90
        2
 70
     1
 43
0.001
 10
6.01184985480297
 20
1.10011341371936
 42
1.0
 10
6.012556961584157
 20
1.100820520500547
 42
1.0
  0
LWPOLYLINE
  5
F97
330
A
100
AcDbEntity
  8
0
 62
     7
100
AcDbPolyline
 90
        2
 70
     1
 43
0.001
 10
6.014678281927716
 20
1.097284986594614
 42
1.0
 10
6.015385388708903
 20
1.0979920933758
 42
1.0
  0
LWPOLYLINE
  5
F98
330
A
100
AcDbEntity
  8
0
 62
     7
100
AcDbPolyline
 90
        2
 70
     0
 43
0.002
 10
5.378635732250416
 20
0.4612424369173152
 10
6.015031835318309
 20
1.097638539985208
  0
LWPOLYLINE
  5
F99
330
A
100
AcDbEntity
  8
0
 62
     7
100
AcDbPolyline
 90
        2
 70
     1
 43
0.001
 10
5.378282178859823
 20
0.4608888835267218
 42
1.0
 10
5.37898928564101
 20
0.4615959903079086
 42
1.0
  0
LWPOLYLINE
  5
F9A
330
A
100
AcDbEntity
  8
0
 62
     7
100
AcDbPolyline
 90
        2
 70
     1
 43
0.001
 10
6.014678281927716
 20
1.097284986594614
 42
1.0
 10
6.015385388708903
 20
1.0979920933758
 42
1.0
  0
LWPOLYLINE
  5
F9B
330
A
100
AcDbEntity
  8
0
 62
     7
100
AcDbPolyline
 90
        2
 70
     0
 43
0.001
 10
5.443689556119579
 20
0.3961886130481531
 10
6.080085659187472
 20
1.032584716116045
  0
LWPOLYLINE
  5
F9C
330
A
100
AcDbEntity
  8
0
 62
     7
100
AcDbPolyline
 90
        2
 70
     1
 43
0.0005
 10
5.443512779424282
 20
0.396011836352856
 42
1.0
 10
5.443866332814875
 20
0.3963653897434494
 42
1.0
  0
LWPOLYLINE
  5
F9D
330
A
100
AcDbEntity
  8
0
 62
     7
100
AcDbPolyline
 90
        2
 70
     1
 43
0.0005
 10
6.079908882492174
 20
1.032407939420748
 42
1.0
 10
6.080262435882768
 20
1.032761492811341
 42
1.0
  0
LWPOLYLINE
  5
F9E
330
A
100
AcDbEntity
  8
0
 62
     7
100
AcDbPolyline
 90
        2
 70
     1
 43
0.0005
 10
6.079908882492174
 20
1.032407939420748
 42
1.0
 10
6.080262435882768
 20
1.032761492811341
 42
1.0
  0
LWPOLYLINE
  5
F9F
330
A
100
AcDbEntity
  8
0
 62
     7
100
AcDbPolyline
 90
        2
 70
     1
 43
0.0005
 10
6.081323096054548
 20
1.030993725858376
 42
1.0
 10
6.081676649445141
 20
1.031347279248969
 42
1.0
  0
LWPOLYLINE
  5
FA0
330
A
100
AcDbEntity
  8
0
 62
     7
100
AcDbPolyline
 90
        2
 70
     0
 43
0.001
 10
5.445103769681951
 20
0.3947743994857804
 10
6.081499872749844
 20
1.031170502553672
  0
LWPOLYLINE
  5
FA1
330
A
100
AcDbEntity
  8
0
 62
     7
100
AcDbPolyline
 90
        2
 70
     1
 43
0.0005
 10
5.444926992986655
 20
0.3945976227904833
 42
1.0
 10
5.445280546377248
 20
0.3949511761810767
 42
1.0
  0
LWPOLYLINE
  5
FA2
330
A
100
AcDbEntity
  8
0
 62
     7
100
AcDbPolyline
 90
        2
 70
     1
 43
0.0005
 10
6.081323096054548
 20
1.030993725858376
 42
1.0
 10
6.081676649445141
 20
1.031347279248969
 42
1.0
  0
LWPOLYLINE
  5
FA3
330
A
100
AcDbEntity
  8
0
 62
     7
100
AcDbPolyline
 90
        2
 70
     0
 43
0.001
 10
5.446517983244325
 20
0.3933601859234068
 10
6.082914086312218
 20
1.029756288991299
  0
LWPOLYLINE
  5
FA4
330
A
100
AcDbEntity
  8
0
 62
     7
100
AcDbPolyline
 90
        2
 70
     1
 43
0.0005
 10
5.446341206549028
 20
0.3931834092281097
 42
1.0
 10
5.446694759939622
 20
0.3935369626187031
 42
1.0
  0
LWPOLYLINE
  5
FA5
330
A
100
AcDbEntity
  8
0
 62
     7
100
AcDbPolyline
 90
        2
 70
     1
 43
0.0005
 10
6.082737309616922
 20
1.029579512296002
 42
1.0
 10
6.083090863007514
 20
1.029933065686595
 42
1.0
  0
LWPOLYLINE
  5
FA6
330
A
100
AcDbEntity
  8
0
 62
     7
100
AcDbPolyline
 90
        2
 70
     1
 43
0.0005
 10
6.082737309616922
 20
1.029579512296002
 42
1.0
 10
6.083090863007514
 20
1.029933065686595
 42
1.0
  0
LWPOLYLINE
  5
FA7
330
A
100
AcDbEntity
  8
0
 62
     7
100
AcDbPolyline
 90
        2
 70
     0
 43
0.001
 10
5.447932196806698
 20
0.3919459723610332
 10
6.084328299874592
 20
1.028342075428925
  0
LWPOLYLINE
  5
FA8
330
A
100
AcDbEntity
  8
0
 62
     7
100
AcDbPolyline
 90
        2
 70
     1
 43
0.0005
 10
5.447755420111402
 20
0.391769195665737
 42
1.0
 10
5.448108973501994
 20
0.3921227490563304
 42
1.0
  0
LWPOLYLINE
  5
FA9
330
A
100
AcDbEntity
  8
0
 62
     7
100
AcDbPolyline
 90
        2
 70
     1
 43
0.0005
 10
6.084151523179294
 20
1.028165298733629
 42
1.0
 10
6.084505076569888
 20
1.028518852124221
 42
1.0
  0
LWPOLYLINE
  5
FAA
330
A
100
AcDbEntity
  8
0
 62
     7
100
AcDbPolyline
 90
        2
 70
     1
 43
0.0005
 10
6.084151523179294
 20
1.028165298733629
 42
1.0
 10
6.084505076569888
 20
1.028518852124221
 42
1.0
  0
LWPOLYLINE
  5
FAB
330
A
100
AcDbEntity
  8
0
 62
     7
100
AcDbPolyline
 90
        2
 70
     1
 43
0.0005
 10
6.085565736741667
 20
1.026751085171256
 42
1.0
 10
6.08591929013226
 20
1.02710463856185
 42
1.0
  0
LWPOLYLINE
  5
FAC
330
A
100
AcDbEntity
  8
0
 62
     7
100
AcDbPolyline
 90
        2
 70
     0
 43
0.001
 10
5.449346410369071
 20
0.3905317587986605
 10
6.085742513436963
 20
1.026927861866553
  0
LWPOLYLINE
  5
FAD
330
A
100
AcDbEntity
  8
0
 62
     7
100
AcDbPolyline
 90
        2
 70
     1
 43
0.0005
 10
5.449169633673774
 20
0.3903549821033643
 42
1.0
 10
5.449523187064367
 20
0.3907085354939577
 42
1.0
  0
LWPOLYLINE
  5
FAE
330
A
100
AcDbEntity
  8
0
 62
     7
100
AcDbPolyline
 90
        2
 70
     1
 43
0.0005
 10
6.085565736741667
 20
1.026751085171256
 42
1.0
 10
6.08591929013226
 20
1.02710463856185
 42
1.0
  0
LWPOLYLINE
  5
FAF
330
A
100
AcDbEntity
  8
0
 62
     7
100
AcDbPolyline
 90
        2
 70
     0
 43
0.005
 10
5.166503697894452
 20
0.673374471273279
 10
5.802899800962345
 20
1.309770574341172
  0
LWPOLYLINE
  5
FB0
330
A
100
AcDbEntity
  8
0
 62
     7
100
AcDbPolyline
 90
        2
 70
     1
 43
0.0025
 10
5.165619814417969
 20
0.672490587796796
 42
1.0
 10
5.167387581370935
 20
0.6742583547497621
 42
1.0
  0
LWPOLYLINE
  5
FB1
330
A
100
AcDbEntity
  8
0
 62
     7
100
AcDbPolyline
 90
        2
 70
     1
 43
0.0025
 10
5.802015917485862
 20
1.308886690864689
 42
1.0
 10
5.803783684438828
 20
1.310654457817655
 42
1.0
  0
LWPOLYLINE
  5
FB2
330
A
100
AcDbEntity
  8
0
 62
     7
100
AcDbPolyline
 90
        2
 70
     0
 43
0.004
 10
5.237214376013106
 20
0.6026637931546253
 10
5.873610479080999
 20
1.239059896222517
  0
LWPOLYLINE
  5
FB3
330
A
100
AcDbEntity
  8
0
 62
     7
100
AcDbPolyline
 90
        2
 70
     1
 43
0.002
 10
5.236507269231919
 20
0.6019566863734385
 42
1.0
 10
5.237921482794293
 20
0.6033708999358112
 42
1.0
  0
LWPOLYLINE
  5
FB4
330
A
100
AcDbEntity
  8
0
 62
     7
100
AcDbPolyline
 90
        2
 70
     1
 43
0.002
 10
5.872903372299813
 20
1.23835278944133
 42
1.0
 10
5.874317585862186
 20
1.239767003003704
 42
1.0
  0
LWPOLYLINE
  5
FB5
330
A
100
AcDbEntity
  8
0
 62
     7
100
AcDbPolyline
 90
        2
 70
     1
 43
0.002
 10
5.872903372299813
 20
1.23835278944133
 42
1.0
 10
5.874317585862186
 20
1.239767003003704
 42
1.0
  0
LWPOLYLINE
  5
FB6
330
A
100
AcDbEntity
  8
0
 62
     7
100
AcDbPolyline
 90
        2
 70
     0
 43
0.004
 10
5.231557521763614
 20
0.608320647404117
 10
5.867953624831507
 20
1.24471675047201
  0
LWPOLYLINE
  5
FB7
330
A
100
AcDbEntity
  8
0
 62
     7
100
AcDbPolyline
 90
        2
 70
     1
 43
0.002
 10
5.230850414982428
 20
0.6076135406229302
 42
1.0
 10
5.2322646285448
 20
0.6090277541853038
 42
1.0
  0
LWPOLYLINE
  5
FB8
330
A
100
AcDbEntity
  8
0
 62
     7
100
AcDbPolyline
 90
        2
 70
     1
 43
0.002
 10
5.86724651805032
 20
1.244009643690823
 42
1.0
 10
5.868660731612694
 20
1.245423857253196
 42
1.0
  0
LWPOLYLINE
  5
FB9
330
A
100
AcDbEntity
  8
0
 62
     7
100
AcDbPolyline
 90
        2
 70
     1
 43
0.002
 10
5.86724651805032
 20
1.244009643690823
 42
1.0
 10
5.868660731612694
 20
1.245423857253196
 42
1.0
  0
LWPOLYLINE
  5
FBA
330
A
100
AcDbEntity
  8
0
 62
     7
100
AcDbPolyline
 90
        2
 70
     1
 43
0.002
 10
5.861589663800828
 20
1.249666497940316
 42
1.0
 10
5.863003877363201
 20
1.251080711502688
 42
1.0
  0
LWPOLYLINE
  5
FBB
330
A
100
AcDbEntity
  8
0
 62
     7
100
AcDbPolyline
 90
        2
 70
     0
 43
0.004
 10
5.225900667514122
 20
0.6139775016536096
 10
5.862296770582014
 20
1.250373604721502
  0
LWPOLYLINE
  5
FBC
330
A
100
AcDbEntity
  8
0
 62
     7
100
AcDbPolyline
 90
        2
 70
     1
 43
0.002
 10
5.225193560732935
 20
0.6132703948724228
 42
1.0
 10
5.226607774295308
 20
0.6146846084347964
 42
1.0
  0
LWPOLYLINE
  5
FBD
330
A
100
AcDbEntity
  8
0
 62
     7
100
AcDbPolyline
 90
        2
 70
     1
 43
0.002
 10
5.861589663800828
 20
1.249666497940316
 42
1.0
 10
5.863003877363201
 20
1.251080711502688
 42
1.0
  0
LWPOLYLINE
  5
FBE
330
A
100
AcDbEntity
  8
0
 62
     7
100
AcDbPolyline
 90
        2
 70
     0
 43
0.004
 10
5.22024381326463
 20
0.6196343559031022
 10
5.856639916332523
 20
1.256030458970994
  0
LWPOLYLINE
  5
FBF
330
A
100
AcDbEntity
  8
0
 62
     7
100
AcDbPolyline
 90
        2
 70
     1
 43
0.002
 10
5.219536706483443
 20
0.6189272491219154
 42
1.0
 10
5.220950920045816
 20
0.6203414626842881
 42
1.0
  0
LWPOLYLINE
  5
FC0
330
A
100
AcDbEntity
  8
0
 62
     7
100
AcDbPolyline
 90
        2
 70
     1
 43
0.002
 10
5.855932809551336
 20
1.255323352189807
 42
1.0
 10
5.857347023113709
 20
1.25673756575218
 42
1.0
  0
LWPOLYLINE
  5
FC1
330
A
100
AcDbEntity
  8
0
 62
     7
100
AcDbPolyline
 90
        2
 70
     1
 43
0.002
 10
5.855932809551336
 20
1.255323352189807
 42
1.0
 10
5.857347023113709
 20
1.25673756575218
 42
1.0
  0
LWPOLYLINE
  5
FC2
330
A
100
AcDbEntity
  8
0
 62
     7
100
AcDbPolyline
 90
        2
 70
     1
 43
0.002
 10
5.850275955301843
 20
1.2609802064393
 42
1.0
 10
5.851690168864216
 20
1.262394420001673
 42
1.0
  0
LWPOLYLINE
  5
FC3
330
A
100
AcDbEntity
  8
0
 62
     7
100
AcDbPolyline
 90
        2
 70
     0
 43
0.004
 10
5.214586959015138
 20
0.6252912101525947
 10
5.85098306208303
 20
1.261687313220487
  0
LWPOLYLINE
  5
FC4
330
A
100
AcDbEntity
  8
0
 62
     7
100
AcDbPolyline
 90
        2
 70
     1
 43
0.002
 10
5.213879852233951
 20
0.6245841033714079
 42
1.0
 10
5.215294065796324
 20
0.6259983169337806
 42
1.0
  0
LWPOLYLINE
  5
FC5
330
A
100
AcDbEntity
  8
0
 62
     7
100
AcDbPolyline
 90
        2
 70
     1
 43
0.002
 10
5.850275955301843
 20
1.2609802064393
 42
1.0
 10
5.851690168864216
 20
1.262394420001673
 42
1.0
  0
LWPOLYLINE
  5
FC6
330
A
100
AcDbEntity
  8
0
 62
     7
100
AcDbPolyline
 90
        2
 70
     1
 43
0.0025
 10
5.802015917485862
 20
1.308886690864689
 42
1.0
 10
5.803783684438828
 20
1.310654457817655
 42
1.0
  0
LWPOLYLINE
  5
FC7
330
A
100
AcDbEntity
  8
0
 62
     7
100
AcDbPolyline
 90
        2
 70
     0
 43
0.005
 10
5.159432630082587
 20
0.6804455390851452
 10
5.79582873315048
 20
1.316841642153037
  0
LWPOLYLINE
  5
FC8
330
A
100
AcDbEntity
  8
0
 62
     7
100
AcDbPolyline
 90
        2
 70
     1
 43
0.0025
 10
5.158548746606103
 20
0.6795616556086613
 42
1.0
 10
5.16031651355907
 20
0.6813294225616282
 42
1.0
  0
LWPOLYLINE
  5
FC9
330
A
100
AcDbEntity
  8
0
 62
     7
100
AcDbPolyline
 90
        2
 70
     1
 43
0.0025
 10
5.794944849673996
 20
1.315957758676553
 42
1.0
 10
5.796712616626963
 20
1.31772552562952
 42
1.0
  0
LWPOLYLINE
  5
FCA
330
A
100
AcDbEntity
  8
0
 62
     7
100
AcDbPolyline
 90
        2
 70
     1
 43
0.0025
 10
5.794944849673996
 20
1.315957758676553
 42
1.0
 10
5.796712616626963
 20
1.31772552562952
 42
1.0
  0
LWPOLYLINE
  5
FCB
330
A
100
AcDbEntity
  8
0
 62
     7
100
AcDbPolyline
 90
        2
 70
     1
 43
0.0025
 10
5.787873781862131
 20
1.323028826488419
 42
1.0
 10
5.789641548815097
 20
1.324796593441385
 42
1.0
  0
LWPOLYLINE
  5
FCC
330
A
100
AcDbEntity
  8
0
 62
     7
100
AcDbPolyline
 90
        2
 70
     0
 43
0.005
 10
5.152361562270721
 20
0.6875166068970096
 10
5.788757665338614
 20
1.323912709964902
  0
LWPOLYLINE
  5
FCD
330
A
100
AcDbEntity
  8
0
 62
     7
100
AcDbPolyline
 90
        2
 70
     1
 43
0.0025
 10
5.151477678794238
 20
0.6866327234205265
 42
1.0
 10
5.153245445747204
 20
0.6884004903734926
 42
1.0
  0
LWPOLYLINE
  5
FCE
330
A
100
AcDbEntity
  8
0
 62
     7
100
AcDbPolyline
 90
        2
 70
     1
 43
0.0025
 10
5.787873781862131
 20
1.323028826488419
 42
1.0
 10
5.789641548815097
 20
1.324796593441385
 42
1.0
  0
LWPOLYLINE
  5
FCF
330
A
100
AcDbEntity
  8
0
 62
     7
100
AcDbPolyline
 90
        2
 70
     0
 43
0.005
 10
5.145290494458855
 20
0.6945876747088758
 10
5.781686597526748
 20
1.330983777776769
  0
LWPOLYLINE
  5
FD0
330
A
100
AcDbEntity
  8
0
 62
     7
100
AcDbPolyline
 90
        2
 70
     1
 43
0.0025
 10
5.144406610982372
 20
0.6937037912323927
 42
1.0
 10
5.146174377935338
 20
0.6954715581853588
 42
1.0
  0
LWPOLYLINE
  5
FD1
330
A
100
AcDbEntity
  8
0
 62
     7
100
AcDbPolyline
 90
        2
 70
     1
 43
0.0025
 10
5.780802714050265
 20
1.330099894300285
 42
1.0
 10
5.782570481003231
 20
1.331867661253252
 42
1.0
  0
LWPOLYLINE
  5
FD2
330
A
100
AcDbEntity
  8
0
 62
     7
100
AcDbPolyline
 90
        2
 70
     1
 43
0.0025
 10
5.780802714050265
 20
1.330099894300285
 42
1.0
 10
5.782570481003231
 20
1.331867661253252
 42
1.0
  0
LWPOLYLINE
  5
FD3
330
A
100
AcDbEntity
  8
0
 62
     7
100
AcDbPolyline
 90
        2
 70
     1
 43
0.0025
 10
5.773731646238399
 20
1.33717096211215
 42
1.0
 10
5.775499413191366
 20
1.338938729065117
 42
1.0
  0
LWPOLYLINE
  5
FD4
330
A
100
AcDbEntity
  8
0
 62
     7
100
AcDbPolyline
 90
        2
 70
     0
 43
0.005
 10
5.13821942664699
 20
0.7016587425207419
 10
5.774615529714883
 20
1.338054845588634
  0
LWPOLYLINE
  5
FD5
330
A
100
AcDbEntity
  8
0
 62
     7
100
AcDbPolyline
 90
        2
 70
     1
 43
0.0025
 10
5.137335543170507
 20
0.700774859044258
 42
1.0
 10
5.139103310123473
 20
0.702542625997225
 42
1.0
  0
LWPOLYLINE
  5
FD6
330
A
100
AcDbEntity
  8
0
 62
     7
100
AcDbPolyline
 90
        2
 70
     1
 43
0.0025
 10
5.773731646238399
 20
1.33717096211215
 42
1.0
 10
5.775499413191366
 20
1.338938729065117
 42
1.0
  0
LWPOLYLINE
  5
FD7
330
A
100
AcDbEntity
  8
0
 62
     7
100
AcDbPolyline
 90
        2
 70
     1
 43
0.005
 10
5.37686796529745
 20
1.732266876100133
 42
1.0
 10
5.380403499203383
 20
1.735802410006066
 42
1.0
  0
LWPOLYLINE
  5
FD8
330
A
100
AcDbEntity
  8
0
 62
     7
100
AcDbPolyline
 90
        2
 70
     0
 43
0.01
 10
4.6856710866876
 20
1.154207082480131
 10
5.322067189755493
 20
1.790603185548024
  0
LWPOLYLINE
  5
FD9
330
A
100
AcDbEntity
  8
0
 62
     7
100
AcDbPolyline
 90
        2
 70
     1
 43
0.005
 10
4.683903319734634
 20
1.152439315527164
 42
1.0
 10
4.687438853640566
 20
1.155974849433098
 42
1.0
  0
LWPOLYLINE
  5
FDA
330
A
100
AcDbEntity
  8
0
 62
     7
100
AcDbPolyline
 90
        2
 70
     1
 43
0.005
 10
5.320299422802526
 20
1.788835418595057
 42
1.0
 10
5.323834956708459
 20
1.79237095250099
 42
1.0
  0
LWPOLYLINE
  5
FDB
330
A
100
AcDbEntity
  8
0
 62
     7
100
AcDbPolyline
 90
        2
 70
     1
 43
0.005
 10
5.320299422802526
 20
1.788835418595057
 42
1.0
 10
5.323834956708459
 20
1.79237095250099
 42
1.0
  0
LWPOLYLINE
  5
FDC
330
A
100
AcDbEntity
  8
0
 62
     7
100
AcDbPolyline
 90
        2
 70
     1
 43
0.005
 10
5.334441558426257
 20
1.774693282971327
 42
1.0
 10
5.33797709233219
 20
1.778228816877259
 42
1.0
  0
LWPOLYLINE
  5
FDD
330
A
100
AcDbEntity
  8
0
 62
     7
100
AcDbPolyline
 90
        2
 70
     0
 43
0.01
 10
4.69981322231133
 20
1.140064946856401
 10
5.336209325379224
 20
1.776461049924293
  0
LWPOLYLINE
  5
FDE
330
A
100
AcDbEntity
  8
0
 62
     7
100
AcDbPolyline
 90
        2
 70
     1
 43
0.005
 10
4.698045455358364
 20
1.138297179903434
 42
1.0
 10
4.701580989264297
 20
1.141832713809368
 42
1.0
  0
LWPOLYLINE
  5
FDF
330
A
100
AcDbEntity
  8
0
 62
     7
100
AcDbPolyline
 90
        2
 70
     1
 43
0.005
 10
5.334441558426257
 20
1.774693282971327
 42
1.0
 10
5.33797709233219
 20
1.778228816877259
 42
1.0
  0
LWPOLYLINE
  5
FE0
330
A
100
AcDbEntity
  8
0
 62
     7
100
AcDbPolyline
 90
        2
 70
     0
 43
0.01
 10
4.713955357935062
 20
1.125922811232669
 10
5.350351461002954
 20
1.762318914300562
  0
LWPOLYLINE
  5
FE1
330
A
100
AcDbEntity
  8
0
 62
     7
100
AcDbPolyline
 90
        2
 70
     1
 43
0.005
 10
4.712187590982095
 20
1.124155044279703
 42
1.0
 10
4.715723124888028
 20
1.127690578185635
 42
1.0
  0
LWPOLYLINE
  5
FE2
330
A
100
AcDbEntity
  8
0
 62
     7
100
AcDbPolyline
 90
        2
 70
     1
 43
0.005
 10
5.348583694049988
 20
1.760551147347595
 42
1.0
 10
5.35211922795592
 20
1.764086681253528
 42
1.0
  0
LWPOLYLINE
  5
FE3
330
A
100
AcDbEntity
  8
0
 62
     7
100
AcDbPolyline
 90
        2
 70
     1
 43
0.005
 10
5.348583694049988
 20
1.760551147347595
 42
1.0
 10
5.35211922795592
 20
1.764086681253528
 42
1.0
  0
LWPOLYLINE
  5
FE4
330
A
100
AcDbEntity
  8
0
 62
     7
100
AcDbPolyline
 90
        2
 70
     1
 43
0.005
 10
5.362725829673719
 20
1.746409011723865
 42
1.0
 10
5.366261363579651
 20
1.749944545629798
 42
1.0
  0
LWPOLYLINE
  5
FE5
330
A
100
AcDbEntity
  8
0
 62
     7
100
AcDbPolyline
 90
        2
 70
     0
 43
0.01
 10
4.728097493558792
 20
1.111780675608939
 10
5.364493596626685
 20
1.748176778676832
  0
LWPOLYLINE
  5
FE6
330
A
100
AcDbEntity
  8
0
 62
     7
100
AcDbPolyline
 90
        2
 70
     1
 43
0.005
 10
4.726329726605825
 20
1.110012908655972
 42
1.0
 10
4.729865260511759
 20
1.113548442561905
 42
1.0
  0
LWPOLYLINE
  5
FE7
330
A
100
AcDbEntity
  8
0
 62
     7
100
AcDbPolyline
 90
        2
 70
     1
 43
0.005
 10
5.362725829673719
 20
1.746409011723865
 42
1.0
 10
5.366261363579651
 20
1.749944545629798
 42
1.0
  0
LWPOLYLINE
  5
FE8
330
A
100
AcDbEntity
  8
0
 62
     7
100
AcDbPolyline
 90
        2
 70
     0
 43
0.01
 10
4.742239629182524
 20
1.097638539985207
 10
5.378635732250417
 20
1.734034643053099
  0
LWPOLYLINE
  5
FE9
330
A
100
AcDbEntity
  8
0
 62
     7
100
AcDbPolyline
 90
        2
 70
     1
 43
0.005
 10
4.740471862229558
 20
1.09587077303224
 42
1.0
 10
4.74400739613549
 20
1.099406306938174
 42
1.0
  0
LWPOLYLINE
  5
FEA
330
A
100
AcDbEntity
  8
0
 62
     7
100
AcDbPolyline
 90
        2
 70
     1
 43
0.005
 10
5.37686796529745
 20
1.732266876100133
 42
1.0
 10
5.380403499203383
 20
1.735802410006066
 42
1.0
  0
TEXT
  5
FEB
330
A
100
AcDbEntity
  8
0
 62
     7
100
AcDbText
 10
5.413991071309743
 20
0.3551764197393332
 30
0.0
 40
0.04
  1
1
 50
45.0
100
AcDbText
  0
TEXT
  5
FEC
330
A
100
AcDbEntity
  8
0
 62
     7
100
AcDbText
 10
5.343280393191088
 20
0.4258870978579879
 30
0.0
 40
0.04
  1
2
 50
45.0
100
AcDbText
  0
TEXT
  5
FED
330
A
100
AcDbEntity
  8
0
 62
     7
100
AcDbText
 10
5.272569715072433
 20
0.4965977759766425
 30
0.0
 40
0.04
  1
3
 50
45.0
100
AcDbText
  0
TEXT
  5
FEE
330
A
100
AcDbEntity
  8
0
 62
     7
100
AcDbText
 10
5.06043768071647
 20
0.7087298103326063
 30
0.0
 40
0.04
  1
6
 50
45.0
100
AcDbText
  0
TEXT
  5
FEF
330
A
100
AcDbEntity
  8
0
 62
     7
100
AcDbText
 10
4.989727002597815
 20
0.7794404884512609
 30
0.0
 40
0.04
  1
7
 50
45.0
100
AcDbText
  0
TEXT
  5
FF0
330
A
100
AcDbEntity
  8
0
 62
     7
100
AcDbText
 10
4.91901632447916
 20
0.8501511665699155
 30
0.0
 40
0.04
  1
8
 50
45.0
100
AcDbText
  0
TEXT
  5
FF1
330
A
100
AcDbEntity
  8
0
 62
     7
100
AcDbText
 10
4.848305646360506
 20
0.920861844688571
 30
0.0
 40
0.04
  1
9
 50
45.0
100
AcDbText
  0
TEXT
  5
FF2
330
A
100
AcDbEntity
  8
0
 62
     7
100
AcDbText
 10
4.689206620593532
 20
1.044605531396216
 30
0.0
 40
0.04
  1
10
 50
45.0
100
AcDbText
  0
TEXT
  5
FF3
330
A
100
AcDbEntity
  8
0
 62
     7
100
AcDbText
 10
5.201859036953779
 20
0.5673084540952971
 30
0.0
 40
0.04
  1
4
 50
45.0
100
AcDbText
  0
TEXT
  5
FF4
330
A
100
AcDbEntity
  8
0
 62
     7
100
AcDbText
 10
5.131148358835124
 20
0.6380191322139517
 30
0.0
 40
0.04
  1
5
 50
45.0
100
AcDbText
  0
LWPOLYLINE
  5
1010
330
A
100
AcDbEntity
  8
0
  6
Continuous
100
AcDbPolyline
 90
        2
 70
   128
 43
0.4
 10
7.4
 20
2.4
 10
7.4
 20
0.4
  0
MTEXT
  5
1477
330
A
100
AcDbEntity
  8
Bars
100
AcDbMText
 10
5.968728
 20
2.199700200000005
 30
0.0
 40
0.17818
 41
0.1604
 71
     9
 72
     5
  1
{\fArial Narrow|b0|i0|c0|p34;2}
  7
ROMANT
 73
     1
 44
1.0
1001
ACAD
1000
MTEXTBEGIN
1070
    73
1070
     1
1070
    44
1040
1.0
1070
    74
1070
     0
1000
MTEXTEND
  0
MTEXT
  5
1478
330
A
100
AcDbEntity
  8
Bars
100
AcDbMText
 10
7.039999999999999
 20
2.277880200000002
 30
0.0
 40
0.1
 41
0.07552
 71
     7
 72
     5
  1
{\fArial Narrow|b0|i0|c0|p34;1}
  7
ROMANT
 73
     1
 44
1.0
1001
ACAD
1000
MTEXTBEGIN
1070
    73
1070
     1
1070
    44
1040
1.0
1070
    74
1070
     0
1000
MTEXTEND
  0
MTEXT
  5
1479
330
A
100
AcDbEntity
  8
Bars
100
AcDbMText
 10
5.989603200000001
 20
1.630043600000025
 30
0.0
 40
0.125992
 41
0.11336
 71
     9
 72
     5
  1
{\fArial Narrow|b0|i0|c0|p34;5}
  7
ROMANT
 73
     1
 44
1.0
1001
ACAD
1000
MTEXTBEGIN
1070
    73
1070
     1
1070
    44
1040
1.0
1070
    74
1070
     0
1000
MTEXTEND
  0
MTEXT
  5
147A
330
A
100
AcDbEntity
  8
Bars
100
AcDbMText
 10
5.9834312
 20
1.798462199999995
 30
0.0
 40
0.141422
 41
0.12728
 71
     9
 72
     5
  1
{\fArial Narrow|b0|i0|c0|p34;4}
  7
ROMANT
 73
     1
 44
1.0
1001
ACAD
1000
MTEXTBEGIN
1070
    73
1070
     1
1070
    44
1040
1.0
1070
    74
1070
     0
1000
MTEXTEND
  0
MTEXT
  5
147B
330
A
100
AcDbEntity
  8
Bars
100
AcDbMText
 10
5.976503999999999
 20
1.987506200000026
 30
0.0
 40
0.15874
 41
0.14288
 71
     9
 72
     5
  1
{\fArial Narrow|b0|i0|c0|p34;3}
  7
ROMANT
 73
     1
 44
1.0
1001
ACAD
1000
MTEXTBEGIN
1070
    73
1070
     1
1070
    44
1040
1.0
1070
    74
1070
     0
1000
MTEXTEND
  0
LWPOLYLINE
  5
147C
330
A
100
AcDbEntity
  8
Bars
100
AcDbPolyline
 90
        2
 70
     0
 10
6.3297816
 20
1.7560356
 40
0.0251984
 41
0.0251984
 10
6.3297816
 20
1.6300436
 40
0.0503968
 41
0.0503968
  0
LWPOLYLINE
  5
147D
330
A
100
AcDbEntity
  8
Bars
100
AcDbPolyline
 90
        2
 70
     0
 10
6.228987999999999
 20
1.7560356
 40
0.0251984
 41
0.0251984
 10
6.228987999999999
 20
1.6300436
 40
0.0503968
 41
0.0503968
  0
LWPOLYLINE
  5
147E
330
A
100
AcDbEntity
  8
Bars
100
AcDbPolyline
 90
        2
 70
     0
 10
6.165992000000001
 20
1.7434364
 40
0.0251984
 41
0.0251984
 10
6.039999999999999
 20
1.7434364
 40
0.0503968
 41
0.0503968
  0
LWPOLYLINE
  5
147F
330
A
100
AcDbEntity
  8
Bars
100
AcDbPolyline
 90
        2
 70
     0
 10
6.279384799999999
 20
1.7560356
 40
0.0251984
 41
0.0251984
 10
6.279384799999999
 20
1.6300436
 40
0.0503968
 41
0.0503968
  0
LWPOLYLINE
  5
1480
330
A
100
AcDbEntity
  8
Bars
100
AcDbPolyline
 90
        2
 70
     0
 10
6.152245999999999
 20
1.5810214
 40
0.0224492
 41
0.0224492
 10
6.039999999999999
 20
1.5810214
 40
0.0448984
 41
0.0448984
  0
LWPOLYLINE
  5
1481
330
A
100
AcDbEntity
  8
Bars
100
AcDbPolyline
 90
        2
 70
     0
 10
6.152245999999999
 20
1.536122999999999
 40
0.0224492
 41
0.0224492
 10
6.039999999999999
 20
1.536122999999999
 40
0.0448984
 41
0.0448984
  0
LWPOLYLINE
  5
1482
330
A
100
AcDbEntity
  8
Bars
100
AcDbPolyline
 90
        2
 70
     0
 10
6.152245999999999
 20
1.491224600000002
 40
0.0224492
 41
0.0224492
 10
6.039999999999999
 20
1.491224600000002
 40
0.0448984
 41
0.0448984
  0
LWPOLYLINE
  5
1483
330
A
100
AcDbEntity
  8
Bars
100
AcDbPolyline
 90
        2
 70
     0
 10
6.165992000000001
 20
1.693039599999998
 40
0.0251984
 41
0.0251984
 10
6.039999999999999
 20
1.693039599999998
 40
0.0503968
 41
0.0503968
  0
LWPOLYLINE
  5
1484
330
A
100
AcDbEntity
  8
Bars
100
AcDbPolyline
 90
        2
 70
     0
 10
6.165992000000001
 20
1.6426428
 40
0.0251984
 41
0.0251984
 10
6.039999999999999
 20
1.6426428
 40
0.0503968
 41
0.0503968
  0
MTEXT
  5
1485
330
A
100
AcDbEntity
  8
Bars
100
AcDbMText
 10
5.995101600000002
 20
1.480000000000035
 30
0.0
 40
0.112246
 41
0.10104
 71
     9
 72
     5
  1
{\fArial Narrow|b0|i0|c0|p34;6}
  7
ROMANT
 73
     1
 44
1.0
1001
ACAD
1000
MTEXTBEGIN
1070
    73
1070
     1
1070
    44
1040
1.0
1070
    74
1070
     0
1000
MTEXTEND
  0
LWPOLYLINE
  5
1486
330
A
100
AcDbEntity
  8
Bars
100
AcDbPolyline
 90
        2
 70
     0
 10
6.298165799999998
 20
1.592245999999999
 40
0.0224492
 41
0.0224492
 10
6.298165799999998
 20
1.48
 40
0.0448984
 41
0.0448984
  0
LWPOLYLINE
  5
1487
330
A
100
AcDbEntity
  8
Bars
100
AcDbPolyline
 90
        2
 70
     0
 10
6.208368999999999
 20
1.592245999999999
 40
0.0224492
 41
0.0224492
 10
6.208368999999999
 20
1.48
 40
0.0448984
 41
0.0448984
  0
LWPOLYLINE
  5
1488
330
A
100
AcDbEntity
  8
Bars
100
AcDbPolyline
 90
        2
 70
     0
 10
6.253267399999999
 20
1.592245999999999
 40
0.0224492
 41
0.0224492
 10
6.253267399999999
 20
1.48
 40
0.0448984
 41
0.0448984
  0
LWPOLYLINE
  5
1489
330
A
100
AcDbEntity
  8
Bars
100
AcDbPolyline
 90
        2
 70
     0
 10
6.539999999999999
 20
1.679999999999999
 40
0.04
 41
0.04
 10
6.539999999999999
 20
1.48
 40
0.08
 41
0.08
  0
LWPOLYLINE
  5
148A
330
A
100
AcDbEntity
  8
Bars
100
AcDbPolyline
 90
        2
 70
     0
 10
6.699999999999999
 20
1.679999999999999
 40
0.04
 41
0.04
 10
6.699999999999999
 20
1.48
 40
0.08
 41
0.08
  0
LWPOLYLINE
  5
148B
330
A
100
AcDbEntity
  8
Bars
100
AcDbPolyline
 90
        2
 70
     0
 10
6.619999999999999
 20
1.679999999999999
 40
0.04
 41
0.04
 10
6.619999999999999
 20
1.48
 40
0.08
 41
0.08
  0
LWPOLYLINE
  5
148C
330
A
100
AcDbEntity
  8
Bars
100
AcDbPolyline
 90
        2
 70
     0
 10
6.341605999999998
 20
2.1462462
 40
0.031748
 41
0.031748
 10
6.341605999999998
 20
1.987506199999998
 40
0.063496
 41
0.063496
  0
LWPOLYLINE
  5
148D
330
A
100
AcDbEntity
  8
Bars
100
AcDbPolyline
 90
        2
 70
     0
 10
6.278109999999998
 20
2.1462462
 40
0.031748
 41
0.031748
 10
6.278109999999998
 20
1.987506199999998
 40
0.063496
 41
0.063496
  0
LWPOLYLINE
  5
148E
330
A
100
AcDbEntity
  8
Bars
100
AcDbPolyline
 90
        2
 70
     0
 10
6.198739999999999
 20
2.066876200000002
 40
0.031748
 41
0.031748
 10
6.039999999999999
 20
2.066876200000002
 40
0.063496
 41
0.063496
  0
LWPOLYLINE
  5
148F
330
A
100
AcDbEntity
  8
Bars
100
AcDbPolyline
 90
        2
 70
     0
 10
6.198739999999999
 20
2.003380200000002
 40
0.031748
 41
0.031748
 10
6.039999999999999
 20
2.003380200000002
 40
0.063496
 41
0.063496
  0
LWPOLYLINE
  5
1490
330
A
100
AcDbEntity
  8
Bars
100
AcDbPolyline
 90
        2
 70
     0
 10
6.181421999999999
 20
1.925741999999999
 40
0.0282844
 41
0.0282844
 10
6.039999999999999
 20
1.925741999999999
 40
0.0565688
 41
0.0565688
  0
LWPOLYLINE
  5
1491
330
A
100
AcDbEntity
  8
Bars
100
AcDbPolyline
 90
        2
 70
     0
 10
6.181421999999999
 20
1.869173200000002
 40
0.0282844
 41
0.0282844
 10
6.039999999999999
 20
1.869173200000002
 40
0.0565688
 41
0.0565688
  0
LWPOLYLINE
  5
1492
330
A
100
AcDbEntity
  8
Bars
100
AcDbPolyline
 90
        2
 70
     0
 10
6.181421999999999
 20
1.812604400000001
 40
0.0282844
 41
0.0282844
 10
6.039999999999999
 20
1.812604400000001
 40
0.0565688
 41
0.0565688
  0
LWPOLYLINE
  5
1493
330
A
100
AcDbEntity
  8
Bars
100
AcDbPolyline
 90
        2
 70
     0
 10
6.252132999999998
 20
1.939884199999998
 40
0.0282844
 41
0.0282844
 10
6.252132999999998
 20
1.798462199999999
 40
0.0565688
 41
0.0565688
  0
LWPOLYLINE
  5
1494
330
A
100
AcDbEntity
  8
Bars
100
AcDbPolyline
 90
        2
 70
     0
 10
6.308701799999998
 20
1.939884199999998
 40
0.0282844
 41
0.0282844
 10
6.308701799999998
 20
1.798462199999999
 40
0.0565688
 41
0.0565688
  0
LWPOLYLINE
  5
1495
330
A
100
AcDbEntity
  8
Bars
100
AcDbPolyline
 90
        2
 70
     0
 10
6.218179999999999
 20
2.360062200000001
 40
0.035636
 41
0.035636
 10
6.039999999999999
 20
2.360062200000001
 40
0.071272
 41
0.071272
  0
LWPOLYLINE
  5
1496
330
A
100
AcDbEntity
  8
Bars
100
AcDbPolyline
 90
        2
 70
     0
 10
6.218179999999999
 20
2.288790200000001
 40
0.035636
 41
0.035636
 10
6.039999999999999
 20
2.288790200000001
 40
0.071272
 41
0.071272
  0
LWPOLYLINE
  5
1497
330
A
100
AcDbEntity
  8
Bars
100
AcDbPolyline
 90
        2
 70
     0
 10
6.218179999999999
 20
2.2175182
 40
0.035636
 41
0.035636
 10
6.039999999999999
 20
2.2175182
 40
0.071272
 41
0.071272
  0
LWPOLYLINE
  5
1498
330
A
100
AcDbEntity
  8
Bars
100
AcDbPolyline
 90
        2
 70
     0
 10
6.198739999999999
 20
2.1303722
 40
0.031748
 41
0.031748
 10
6.039999999999999
 20
2.1303722
 40
0.063496
 41
0.063496
  0
LWPOLYLINE
  5
1499
330
A
100
AcDbEntity
  8
Bars
100
AcDbPolyline
 90
        2
 70
     0
 10
6.30727
 20
2.377880199999999
 40
0.035636
 41
0.035636
 10
6.30727
 20
2.199700200000002
 40
0.071272
 41
0.071272
  0
LWPOLYLINE
  5
149A
330
A
100
AcDbEntity
  8
Bars
100
AcDbPolyline
 90
        2
 70
     0
 10
6.405101999999999
 20
2.1462462
 40
0.031748
 41
0.031748
 10
6.405101999999999
 20
1.987506199999998
 40
0.063496
 41
0.063496
  0
LWPOLYLINE
  5
149B
330
A
100
AcDbEntity
  8
Bars
100
AcDbPolyline
 90
        2
 70
     0
 10
6.365270599999998
 20
1.939884199999998
 40
0.0282844
 41
0.0282844
 10
6.365270599999998
 20
1.798462199999999
 40
0.0565688
 41
0.0565688
  0
LWPOLYLINE
  5
149C
330
A
100
AcDbEntity
  8
Bars
100
AcDbPolyline
 90
        4
 70
     1
 43
0.0
 10
6.717083999999999
 20
2.377880199999999
 10
6.538903999999998
 20
2.377880199999999
 10
6.538903999999998
 20
2.199700200000002
 10
6.717083999999999
 20
2.199700200000002
  0
LWPOLYLINE
  5
149D
330
A
100
AcDbEntity
  8
Bars
100
AcDbPolyline
 90
        2
 70
     0
 43
0.1781800000000021
 10
6.627993999999997
 20
2.377880199999999
 10
6.627993999999997
 20
2.199700200000002
  0
LWPOLYLINE
  5
149E
330
A
100
AcDbEntity
  8
Bars
100
AcDbPolyline
 90
        2
 70
     0
 10
6.449813999999998
 20
2.377880199999999
 40
0.035636
 41
0.035636
 10
6.449813999999998
 20
2.199700200000002
 40
0.071272
 41
0.071272
  0
LWPOLYLINE
  5
149F
330
A
100
AcDbEntity
  8
Bars
100
AcDbPolyline
 90
        2
 70
     0
 10
6.378541999999999
 20
2.377880199999999
 40
0.035636
 41
0.035636
 10
6.378541999999999
 20
2.199700200000002
 40
0.071272
 41
0.071272
  0
MTEXT
  5
14A0
330
A
100
AcDbEntity
  8
Bars
100
AcDbMText
 10
7.08
 20
1.480000000000035
 30
0.0
 40
0.2
 41
0.15104
 71
     7
 72
     5
  1
{\fArial Narrow|b0|i0|c0|p34;1}
  7
ROMANT
 73
     1
 44
1.0
1001
ACAD
1000
MTEXTBEGIN
1070
    73
1070
     1
1070
    44
1040
1.0
1070
    74
1070
     0
1000
MTEXTEND
  0
LWPOLYLINE
  5
14A1
330
A
100
AcDbEntity
  8
Bars
100
AcDbPolyline
 90
        2
 70
     0
 10
6.8
 20
1.5
 40
0.04
 41
0.04
 10
7.0
 20
1.5
 40
0.08
 41
0.08
  0
LWPOLYLINE
  5
14A2
330
A
100
AcDbEntity
  8
Bars
100
AcDbPolyline
 90
        2
 70
     0
 10
6.8
 20
1.580000000000001
 40
0.04
 41
0.04
 10
7.0
 20
1.580000000000001
 40
0.08
 41
0.08
  0
LWPOLYLINE
  5
14A3
330
A
100
AcDbEntity
  8
Bars
100
AcDbPolyline
 90
        2
 70
     0
 10
6.8
 20
1.66
 40
0.04
 41
0.04
 10
7.0
 20
1.66
 40
0.08
 41
0.08
  0
MTEXT
  5
14A4
330
A
100
AcDbEntity
  8
Bars
100
AcDbMText
 10
7.031748000000002
 20
2.052693200000032
 30
0.0
 40
0.07937
 41
0.05992
 71
     7
 72
     5
  1
{\fArial Narrow|b0|i0|c0|p34;3}
  7
ROMANT
 73
     1
 44
1.0
1001
ACAD
1000
MTEXTBEGIN
1070
    73
1070
     1
1070
    44
1040
1.0
1070
    74
1070
     0
1000
MTEXTEND
  0
LWPOLYLINE
  5
14A5
330
A
100
AcDbEntity
  8
Bars
100
AcDbPolyline
 90
        2
 70
     0
 10
6.880944999999998
 20
2.132063200000001
 40
0.015874
 41
0.015874
 10
6.880944999999998
 20
2.0526932
 40
0.031748
 41
0.031748
  0
LWPOLYLINE
  5
14A6
330
A
100
AcDbEntity
  8
Bars
100
AcDbPolyline
 90
        2
 70
     0
 10
6.849196999999998
 20
2.132063200000001
 40
0.015874
 41
0.015874
 10
6.849196999999998
 20
2.0526932
 40
0.031748
 41
0.031748
  0
LWPOLYLINE
  5
14A7
330
A
100
AcDbEntity
  8
Bars
100
AcDbPolyline
 90
        2
 70
     0
 10
6.817448999999999
 20
2.132063200000001
 40
0.015874
 41
0.015874
 10
6.817448999999999
 20
2.0526932
 40
0.031748
 41
0.031748
  0
LWPOLYLINE
  5
14A8
330
A
100
AcDbEntity
  8
Bars
100
AcDbPolyline
 90
        2
 70
     0
 10
6.92063
 20
2.060630200000002
 40
0.015874
 41
0.015874
 10
7.0
 20
2.060630200000002
 40
0.031748
 41
0.031748
  0
LWPOLYLINE
  5
14A9
330
A
100
AcDbEntity
  8
Bars
100
AcDbPolyline
 90
        2
 70
     0
 10
6.943877
 20
1.804552400000002
 40
0.0112246
 41
0.0112246
 10
7.0
 20
1.804552400000002
 40
0.0224492
 41
0.0224492
  0
LWPOLYLINE
  5
14AA
330
A
100
AcDbEntity
  8
Bars
100
AcDbPolyline
 90
        2
 70
     0
 10
6.943877
 20
1.827001600000002
 40
0.0112246
 41
0.0112246
 10
7.0
 20
1.827001600000002
 40
0.0224492
 41
0.0224492
  0
LWPOLYLINE
  5
14AB
330
A
100
AcDbEntity
  8
Bars
100
AcDbPolyline
 90
        2
 70
     0
 10
6.943877
 20
1.849450800000003
 40
0.0112246
 41
0.0112246
 10
7.0
 20
1.849450800000003
 40
0.0224492
 41
0.0224492
  0
LWPOLYLINE
  5
14AC
330
A
100
AcDbEntity
  8
Bars
100
AcDbPolyline
 90
        2
 70
     0
 10
6.937003999999998
 20
1.880261500000003
 40
0.0125992
 41
0.0125992
 10
7.0
 20
1.880261500000003
 40
0.0251984
 41
0.0251984
  0
LWPOLYLINE
  5
14AD
330
A
100
AcDbEntity
  8
Bars
100
AcDbPolyline
 90
        2
 70
     0
 10
6.937003999999998
 20
1.9054599
 40
0.0125992
 41
0.0125992
 10
7.0
 20
1.9054599
 40
0.0251984
 41
0.0251984
  0
LWPOLYLINE
  5
14AE
330
A
100
AcDbEntity
  8
Bars
100
AcDbPolyline
 90
        2
 70
     0
 10
6.937003999999998
 20
1.930658300000001
 40
0.0125992
 41
0.0125992
 10
7.0
 20
1.930658300000001
 40
0.0251984
 41
0.0251984
  0
LWPOLYLINE
  5
14AF
330
A
100
AcDbEntity
  8
Bars
100
AcDbPolyline
 90
        2
 70
     0
 10
6.929289
 20
1.965242300000003
 40
0.0141422
 41
0.0141422
 10
7.0
 20
1.965242300000003
 40
0.0282844
 41
0.0282844
  0
LWPOLYLINE
  5
14B0
330
A
100
AcDbEntity
  8
Bars
100
AcDbPolyline
 90
        2
 70
     0
 10
6.929289
 20
1.9935267
 40
0.0141422
 41
0.0141422
 10
7.0
 20
1.9935267
 40
0.0282844
 41
0.0282844
  0
LWPOLYLINE
  5
14B1
330
A
100
AcDbEntity
  8
Bars
100
AcDbPolyline
 90
        2
 70
     0
 10
6.929289
 20
2.0218111
 40
0.0141422
 41
0.0141422
 10
7.0
 20
2.0218111
 40
0.0282844
 41
0.0282844
  0
LWPOLYLINE
  5
14B2
330
A
100
AcDbEntity
  8
Bars
100
AcDbPolyline
 90
        2
 70
     0
 10
6.9158155
 20
1.855063100000002
 40
0.0112246
 41
0.0112246
 10
6.9158155
 20
1.798940100000002
 40
0.0224492
 41
0.0224492
  0
LWPOLYLINE
  5
14B3
330
A
100
AcDbEntity
  8
Bars
100
AcDbPolyline
 90
        2
 70
     0
 10
6.8933663
 20
1.855063100000002
 40
0.0112246
 41
0.0112246
 10
6.8933663
 20
1.798940100000002
 40
0.0224492
 41
0.0224492
  0
LWPOLYLINE
  5
14B4
330
A
100
AcDbEntity
  8
Bars
100
AcDbPolyline
 90
        2
 70
     0
 10
6.870917099999999
 20
1.855063100000002
 40
0.0112246
 41
0.0112246
 10
6.870917099999999
 20
1.798940100000002
 40
0.0224492
 41
0.0224492
  0
LWPOLYLINE
  5
14B5
330
A
100
AcDbEntity
  8
Bars
100
AcDbPolyline
 90
        2
 70
     0
 10
6.905505999999999
 20
1.936957900000003
 40
0.0125992
 41
0.0125992
 10
6.905505999999999
 20
1.873961900000001
 40
0.0251984
 41
0.0251984
  0
LWPOLYLINE
  5
14B6
330
A
100
AcDbEntity
  8
Bars
100
AcDbPolyline
 90
        2
 70
     0
 10
6.8803076
 20
1.936957900000003
 40
0.0125992
 41
0.0125992
 10
6.8803076
 20
1.873961900000001
 40
0.0251984
 41
0.0251984
  0
LWPOLYLINE
  5
14B7
330
A
100
AcDbEntity
  8
Bars
100
AcDbPolyline
 90
        2
 70
     0
 10
6.855109199999999
 20
1.936957900000003
 40
0.0125992
 41
0.0125992
 10
6.855109199999999
 20
1.873961900000001
 40
0.0251984
 41
0.0251984
  0
LWPOLYLINE
  5
14B8
330
A
100
AcDbEntity
  8
Bars
100
AcDbPolyline
 90
        2
 70
     0
 10
6.893933499999999
 20
2.028882200000001
 40
0.0141422
 41
0.0141422
 10
6.893933499999999
 20
1.958171200000002
 40
0.0282844
 41
0.0282844
  0
LWPOLYLINE
  5
14B9
330
A
100
AcDbEntity
  8
Bars
100
AcDbPolyline
 90
        2
 70
     0
 10
6.8656491
 20
2.028882200000001
 40
0.0141422
 41
0.0141422
 10
6.8656491
 20
1.958171200000002
 40
0.0282844
 41
0.0282844
  0
LWPOLYLINE
  5
14BA
330
A
100
AcDbEntity
  8
Bars
100
AcDbPolyline
 90
        2
 70
     0
 10
6.8373647
 20
2.028882200000001
 40
0.0141422
 41
0.0141422
 10
6.8373647
 20
1.958171200000002
 40
0.0282844
 41
0.0282844
  0
MTEXT
  5
14BB
330
A
100
AcDbEntity
  8
Bars
100
AcDbMText
 10
7.022449200000004
 20
1.798940099999999
 30
0.0
 40
0.056123
 41
0.0424
 71
     7
 72
     5
  1
{\fArial Narrow|b0|i0|c0|p34;6}
  7
ROMANT
 73
     1
 44
1.0
1001
ACAD
1000
MTEXTBEGIN
1070
    73
1070
     1
1070
    44
1040
1.0
1070
    74
1070
     0
1000
MTEXTEND
  0
MTEXT
  5
14BC
330
A
100
AcDbEntity
  8
Bars
100
AcDbMText
 10
7.025198400000004
 20
1.873961899999994
 30
0.0
 40
0.062996
 41
0.0476
 71
     7
 72
     5
  1
{\fArial Narrow|b0|i0|c0|p34;5}
  7
ROMANT
 73
     1
 44
1.0
1001
ACAD
1000
MTEXTBEGIN
1070
    73
1070
     1
1070
    44
1040
1.0
1070
    74
1070
     0
1000
MTEXTEND
  0
MTEXT
  5
14BD
330
A
100
AcDbEntity
  8
Bars
100
AcDbMText
 10
7.028284400000002
 20
1.958171199999998
 30
0.0
 40
0.070711
 41
0.05344
 71
     7
 72
     5
  1
{\fArial Narrow|b0|i0|c0|p34;4}
  7
ROMANT
 73
     1
 44
1.0
1001
ACAD
1000
MTEXTBEGIN
1070
    73
1070
     1
1070
    44
1040
1.0
1070
    74
1070
     0
1000
MTEXTEND
  0
LWPOLYLINE
  5
14BE
330
A
100
AcDbEntity
  8
Bars
100
AcDbPolyline
 90
        2
 70
     0
 10
6.910909999999997
 20
2.167699200000001
 40
0.017818
 41
0.017818
 10
7.0
 20
2.167699200000001
 40
0.035636
 41
0.035636
  0
LWPOLYLINE
  5
14BF
330
A
100
AcDbEntity
  8
Bars
100
AcDbPolyline
 90
        2
 70
     0
 10
6.910909999999997
 20
2.203335200000001
 40
0.017818
 41
0.017818
 10
7.0
 20
2.203335200000001
 40
0.035636
 41
0.035636
  0
LWPOLYLINE
  5
14C0
330
A
100
AcDbEntity
  8
Bars
100
AcDbPolyline
 90
        2
 70
     0
 10
6.910909999999997
 20
2.238971200000001
 40
0.017818
 41
0.017818
 10
7.0
 20
2.238971200000001
 40
0.035636
 41
0.035636
  0
LWPOLYLINE
  5
14C1
330
A
100
AcDbEntity
  8
Bars
100
AcDbPolyline
 90
        2
 70
     0
 10
6.92063
 20
2.092378200000002
 40
0.015874
 41
0.015874
 10
7.0
 20
2.092378200000002
 40
0.031748
 41
0.031748
  0
LWPOLYLINE
  5
14C2
330
A
100
AcDbEntity
  8
Bars
100
AcDbPolyline
 90
        2
 70
     0
 10
6.92063
 20
2.124126200000002
 40
0.015874
 41
0.015874
 10
7.0
 20
2.124126200000002
 40
0.031748
 41
0.031748
  0
LWPOLYLINE
  5
14C3
330
A
100
AcDbEntity
  8
Bars
100
AcDbPolyline
 90
        2
 70
     0
 10
6.899999999999998
 20
2.2878802
 40
0.02
 41
0.02
 10
7.0
 20
2.2878802
 40
0.04
 41
0.04
  0
LWPOLYLINE
  5
14C4
330
A
100
AcDbEntity
  8
Bars
100
AcDbPolyline
 90
        2
 70
     0
 10
6.899999999999998
 20
2.327880200000002
 40
0.02
 41
0.02
 10
7.0
 20
2.327880200000002
 40
0.04
 41
0.04
  0
LWPOLYLINE
  5
14C5
330
A
100
AcDbEntity
  8
Bars
100
AcDbPolyline
 90
        2
 70
     0
 10
6.899999999999998
 20
2.367880200000001
 40
0.02
 41
0.02
 10
7.0
 20
2.367880200000001
 40
0.04
 41
0.04
  0
LWPOLYLINE
  5
14C6
330
A
100
AcDbEntity
  8
Bars
100
AcDbPolyline
 90
        2
 70
     0
 10
6.866365
 20
2.2478802
 40
0.017818
 41
0.017818
 10
6.866365
 20
2.158790200000002
 40
0.035636
 41
0.035636
  0
LWPOLYLINE
  5
14C7
330
A
100
AcDbEntity
  8
Bars
100
AcDbPolyline
 90
        2
 70
     0
 10
6.830728999999998
 20
2.2478802
 40
0.017818
 41
0.017818
 10
6.830728999999998
 20
2.158790200000002
 40
0.035636
 41
0.035636
  0
LWPOLYLINE
  5
14C8
330
A
100
AcDbEntity
  8
Bars
100
AcDbPolyline
 90
        2
 70
     0
 10
6.795092999999999
 20
2.2478802
 40
0.017818
 41
0.017818
 10
6.795092999999999
 20
2.158790200000002
 40
0.035636
 41
0.035636
  0
LWPOLYLINE
  5
14C9
330
A
100
AcDbEntity
  8
Bars
100
AcDbPolyline
 90
        2
 70
     0
 10
6.849999999999999
 20
2.377880199999999
 40
0.02
 41
0.02
 10
6.849999999999999
 20
2.277880200000002
 40
0.04
 41
0.04
  0
LWPOLYLINE
  5
14CA
330
A
100
AcDbEntity
  8
Bars
100
AcDbPolyline
 90
        2
 70
     0
 10
6.809999999999998
 20
2.377880199999999
 40
0.02
 41
0.02
 10
6.809999999999998
 20
2.277880200000002
 40
0.04
 41
0.04
  0
LWPOLYLINE
  5
14CB
330
A
100
AcDbEntity
  8
Bars
100
AcDbPolyline
 90
        2
 70
     0
 10
6.769999999999999
 20
2.377880199999999
 40
0.02
 41
0.02
 10
6.769999999999999
 20
2.277880200000002
 40
0.04
 41
0.04
  0
MTEXT
  5
14CC
330
A
100
AcDbEntity
  8
Bars
100
AcDbMText
 10
7.035636000000003
 20
2.158790200000005
 30
0.0
 40
0.08909
 41
0.06728
 71
     7
 72
     5
  1
{\fArial Narrow|b0|i0|c0|p34;2}
  7
ROMANT
 73
     1
 44
1.0
1001
ACAD
1000
MTEXTBEGIN
1070
    73
1070
     1
1070
    44
1040
1.0
1070
    74
1070
     0
1000
MTEXTEND
  0
MTEXT
  5
14CD
330
A
100
AcDbEntity
  8
Bars
100
AcDbMText
 10
6.502182000000001
 20
2.004838200000012
 30
0.0
 40
0.044545
 41
0.0401
 71
     9
 72
     5
  1
{\fArial Narrow|b0|i0|c0|p34;2}
  7
ROMANT
 73
     1
 44
1.0
1001
ACAD
1000
MTEXTBEGIN
1070
    73
1070
     1
1070
    44
1040
1.0
1070
    74
1070
     0
1000
MTEXTEND
  0
MTEXT
  5
14CE
330
A
100
AcDbEntity
  8
Bars
100
AcDbMText
 10
6.769999999999999
 20
2.024383200000013
 30
0.0
 40
0.025
 41
0.01888
 71
     7
 72
     5
  1
{\fArial Narrow|b0|i0|c0|p34;1}
  7
ROMANT
 73
     1
 44
1.0
1001
ACAD
1000
MTEXTBEGIN
1070
    73
1070
     1
1070
    44
1040
1.0
1070
    74
1070
     0
1000
MTEXTEND
  0
MTEXT
  5
14CF
330
A
100
AcDbEntity
  8
Bars
100
AcDbMText
 10
6.507400800000004
 20
1.862424050000008
 30
0.0
 40
0.031498
 41
0.02834
 71
     9
 72
     5
  1
{\fArial Narrow|b0|i0|c0|p34;5}
  7
ROMANT
 73
     1
 44
1.0
1001
ACAD
1000
MTEXTBEGIN
1070
    73
1070
     1
1070
    44
1040
1.0
1070
    74
1070
     0
1000
MTEXTEND
  0
MTEXT
  5
14D0
330
A
100
AcDbEntity
  8
Bars
100
AcDbMText
 10
6.505857799999997
 20
1.90452870000001
 30
0.0
 40
0.0353555
 41
0.03182
 71
     9
 72
     5
  1
{\fArial Narrow|b0|i0|c0|p34;4}
  7
ROMANT
 73
     1
 44
1.0
1001
ACAD
1000
MTEXTBEGIN
1070
    73
1070
     1
1070
    44
1040
1.0
1070
    74
1070
     0
1000
MTEXTEND
  0
MTEXT
  5
14D1
330
A
100
AcDbEntity
  8
Bars
100
AcDbMText
 10
6.504126000000001
 20
1.951789700000045
 30
0.0
 40
0.039685
 41
0.03572
 71
     9
 72
     5
  1
{\fArial Narrow|b0|i0|c0|p34;3}
  7
ROMANT
 73
     1
 44
1.0
1001
ACAD
1000
MTEXTBEGIN
1070
    73
1070
     1
1070
    44
1040
1.0
1070
    74
1070
     0
1000
MTEXTEND
  0
LWPOLYLINE
  5
14D2
330
A
100
AcDbEntity
  8
Bars
100
AcDbPolyline
 90
        2
 70
     0
 10
6.592445399999999
 20
1.89392205
 40
0.0062996
 41
0.0062996
 10
6.592445399999999
 20
1.862424050000001
 40
0.0125992
 41
0.0125992
  0
LWPOLYLINE
  5
14D3
330
A
100
AcDbEntity
  8
Bars
100
AcDbPolyline
 90
        2
 70
     0
 10
6.567247
 20
1.89392205
 40
0.0062996
 41
0.0062996
 10
6.567247
 20
1.862424050000001
 40
0.0125992
 41
0.0125992
  0
LWPOLYLINE
  5
14D4
330
A
100
AcDbEntity
  8
Bars
100
AcDbPolyline
 90
        2
 70
     0
 10
6.551498
 20
1.890772250000001
 40
0.0062996
 41
0.0062996
 10
6.519999999999999
 20
1.890772250000001
 40
0.0125992
 41
0.0125992
  0
LWPOLYLINE
  5
14D5
330
A
100
AcDbEntity
  8
Bars
100
AcDbPolyline
 90
        2
 70
     0
 10
6.579846199999998
 20
1.89392205
 40
0.0062996
 41
0.0062996
 10
6.579846199999998
 20
1.862424050000001
 40
0.0125992
 41
0.0125992
  0
LWPOLYLINE
  5
14D6
330
A
100
AcDbEntity
  8
Bars
100
AcDbPolyline
 90
        2
 70
     0
 10
6.548061499999999
 20
1.850168500000002
 40
0.0056123
 41
0.0056123
 10
6.519999999999999
 20
1.850168500000002
 40
0.0112246
 41
0.0112246
  0
LWPOLYLINE
  5
14D7
330
A
100
AcDbEntity
  8
Bars
100
AcDbPolyline
 90
        2
 70
     0
 10
6.548061499999999
 20
1.8389439
 40
0.0056123
 41
0.0056123
 10
6.519999999999999
 20
1.8389439
 40
0.0112246
 41
0.0112246
  0
LWPOLYLINE
  5
14D8
330
A
100
AcDbEntity
  8
Bars
100
AcDbPolyline
 90
        2
 70
     0
 10
6.548061499999999
 20
1.827719300000001
 40
0.0056123
 41
0.0056123
 10
6.519999999999999
 20
1.827719300000001
 40
0.0112246
 41
0.0112246
  0
LWPOLYLINE
  5
14D9
330
A
100
AcDbEntity
  8
Bars
100
AcDbPolyline
 90
        2
 70
     0
 10
6.551498
 20
1.87817305
 40
0.0062996
 41
0.0062996
 10
6.519999999999999
 20
1.87817305
 40
0.0125992
 41
0.0125992
  0
LWPOLYLINE
  5
14DA
330
A
100
AcDbEntity
  8
Bars
100
AcDbPolyline
 90
        2
 70
     0
 10
6.551498
 20
1.86557385
 40
0.0062996
 41
0.0062996
 10
6.519999999999999
 20
1.86557385
 40
0.0125992
 41
0.0125992
  0
MTEXT
  5
14DB
330
A
100
AcDbEntity
  8
Bars
100
AcDbMText
 10
6.508775400000004
 20
1.824913150000028
 30
0.0
 40
0.0280615
 41
0.02526
 71
     9
 72
     5
  1
{\fArial Narrow|b0|i0|c0|p34;6}
  7
ROMANT
 73
     1
 44
1.0
1001
ACAD
1000
MTEXTBEGIN
1070
    73
1070
     1
1070
    44
1040
1.0
1070
    74
1070
     0
1000
MTEXTEND
  0
LWPOLYLINE
  5
14DC
330
A
100
AcDbEntity
  8
Bars
100
AcDbPolyline
 90
        2
 70
     0
 10
6.584541449999999
 20
1.85297465
 40
0.0056123
 41
0.0056123
 10
6.584541449999999
 20
1.82491315
 40
0.0112246
 41
0.0112246
  0
LWPOLYLINE
  5
14DD
330
A
100
AcDbEntity
  8
Bars
100
AcDbPolyline
 90
        2
 70
     0
 10
6.562092249999999
 20
1.85297465
 40
0.0056123
 41
0.0056123
 10
6.562092249999999
 20
1.82491315
 40
0.0112246
 41
0.0112246
  0
LWPOLYLINE
  5
14DE
330
A
100
AcDbEntity
  8
Bars
100
AcDbPolyline
 90
        2
 70
     0
 10
6.573316849999999
 20
1.85297465
 40
0.0056123
 41
0.0056123
 10
6.573316849999999
 20
1.82491315
 40
0.0112246
 41
0.0112246
  0
LWPOLYLINE
  5
14DF
330
A
100
AcDbEntity
  8
Bars
100
AcDbPolyline
 90
        2
 70
     0
 10
6.644999999999999
 20
1.874913150000001
 40
0.01
 41
0.01
 10
6.644999999999999
 20
1.82491315
 40
0.02
 41
0.02
  0
LWPOLYLINE
  5
14E0
330
A
100
AcDbEntity
  8
Bars
100
AcDbPolyline
 90
        2
 70
     0
 10
6.684999999999998
 20
1.874913150000001
 40
0.01
 41
0.01
 10
6.684999999999998
 20
1.82491315
 40
0.02
 41
0.02
  0
LWPOLYLINE
  5
14E1
330
A
100
AcDbEntity
  8
Bars
100
AcDbPolyline
 90
        2
 70
     0
 10
6.664999999999999
 20
1.874913150000001
 40
0.01
 41
0.01
 10
6.664999999999999
 20
1.82491315
 40
0.02
 41
0.02
  0
LWPOLYLINE
  5
14E2
330
A
100
AcDbEntity
  8
Bars
100
AcDbPolyline
 90
        2
 70
     0
 10
6.595401499999999
 20
1.991474700000001
 40
0.007937
 41
0.007937
 10
6.595401499999999
 20
1.951789699999999
 40
0.015874
 41
0.015874
  0
LWPOLYLINE
  5
14E3
330
A
100
AcDbEntity
  8
Bars
100
AcDbPolyline
 90
        2
 70
     0
 10
6.579527499999999
 20
1.991474700000001
 40
0.007937
 41
0.007937
 10
6.579527499999999
 20
1.951789699999999
 40
0.015874
 41
0.015874
  0
LWPOLYLINE
  5
14E4
330
A
100
AcDbEntity
  8
Bars
100
AcDbPolyline
 90
        2
 70
     0
 10
6.559684999999999
 20
1.971632200000001
 40
0.007937
 41
0.007937
 10
6.519999999999999
 20
1.971632200000001
 40
0.015874
 41
0.015874
  0
LWPOLYLINE
  5
14E5
330
A
100
AcDbEntity
  8
Bars
100
AcDbPolyline
 90
        2
 70
     0
 10
6.559684999999999
 20
1.955758200000001
 40
0.007937
 41
0.007937
 10
6.519999999999999
 20
1.955758200000001
 40
0.015874
 41
0.015874
  0
LWPOLYLINE
  5
14E6
330
A
100
AcDbEntity
  8
Bars
100
AcDbPolyline
 90
        2
 70
     0
 10
6.555355499999999
 20
1.936348649999999
 40
0.0070711
 41
0.0070711
 10
6.519999999999999
 20
1.936348649999999
 40
0.0141422
 41
0.0141422
  0
LWPOLYLINE
  5
14E7
330
A
100
AcDbEntity
  8
Bars
100
AcDbPolyline
 90
        2
 70
     0
 10
6.555355499999999
 20
1.92220645
 40
0.0070711
 41
0.0070711
 10
6.519999999999999
 20
1.92220645
 40
0.0141422
 41
0.0141422
  0
LWPOLYLINE
  5
14E8
330
A
100
AcDbEntity
  8
Bars
100
AcDbPolyline
 90
        2
 70
     0
 10
6.555355499999999
 20
1.908064250000002
 40
0.0070711
 41
0.0070711
 10
6.519999999999999
 20
1.908064250000002
 40
0.0141422
 41
0.0141422
  0
LWPOLYLINE
  5
14E9
330
A
100
AcDbEntity
  8
Bars
100
AcDbPolyline
 90
        2
 70
     0
 10
6.573033249999999
 20
1.939884200000001
 40
0.0070711
 41
0.0070711
 10
6.573033249999999
 20
1.9045287
 40
0.0141422
 41
0.0141422
  0
LWPOLYLINE
  5
14EA
330
A
100
AcDbEntity
  8
Bars
100
AcDbPolyline
 90
        2
 70
     0
 10
6.58717545
 20
1.939884200000001
 40
0.0070711
 41
0.0070711
 10
6.58717545
 20
1.9045287
 40
0.0141422
 41
0.0141422
  0
LWPOLYLINE
  5
14EB
330
A
100
AcDbEntity
  8
Bars
100
AcDbPolyline
 90
        2
 70
     0
 10
6.564544999999998
 20
2.044928699999999
 40
0.008909
 41
0.008909
 10
6.519999999999999
 20
2.044928699999999
 40
0.017818
 41
0.017818
  0
LWPOLYLINE
  5
14EC
330
A
100
AcDbEntity
  8
Bars
100
AcDbPolyline
 90
        2
 70
     0
 10
6.564544999999998
 20
2.027110700000001
 40
0.008909
 41
0.008909
 10
6.519999999999999
 20
2.027110700000001
 40
0.017818
 41
0.017818
  0
LWPOLYLINE
  5
14ED
330
A
100
AcDbEntity
  8
Bars
100
AcDbPolyline
 90
        2
 70
     0
 10
6.564544999999998
 20
2.009292699999999
 40
0.008909
 41
0.008909
 10
6.519999999999999
 20
2.009292699999999
 40
0.017818
 41
0.017818
  0
LWPOLYLINE
  5
14EE
330
A
100
AcDbEntity
  8
Bars
100
AcDbPolyline
 90
        2
 70
     0
 10
6.559684999999999
 20
1.987506200000002
 40
0.007937
 41
0.007937
 10
6.519999999999999
 20
1.987506200000002
 40
0.015874
 41
0.015874
  0
LWPOLYLINE
  5
14EF
330
A
100
AcDbEntity
  8
Bars
100
AcDbPolyline
 90
        2
 70
     0
 10
6.5868175
 20
2.049383200000001
 40
0.008909
 41
0.008909
 10
6.5868175
 20
2.004838200000001
 40
0.017818
 41
0.017818
  0
LWPOLYLINE
  5
14F0
330
A
100
AcDbEntity
  8
Bars
100
AcDbPolyline
 90
        2
 70
     0
 10
6.611275499999999
 20
1.991474700000001
 40
0.007937
 41
0.007937
 10
6.611275499999999
 20
1.951789699999999
 40
0.015874
 41
0.015874
  0
LWPOLYLINE
  5
14F1
330
A
100
AcDbEntity
  8
Bars
100
AcDbPolyline
 90
        2
 70
     0
 10
6.601317649999998
 20
1.939884200000001
 40
0.0070711
 41
0.0070711
 10
6.601317649999998
 20
1.9045287
 40
0.0141422
 41
0.0141422
  0
LWPOLYLINE
  5
14F2
330
A
100
AcDbEntity
  8
Bars
100
AcDbPolyline
 90
        4
 70
     1
 43
0.0
 10
6.689270999999999
 20
2.049383200000001
 10
6.644725999999998
 20
2.049383200000001
 10
6.644725999999998
 20
2.004838200000001
 10
6.689270999999999
 20
2.004838200000001
  0
LWPOLYLINE
  5
14F3
330
A
100
AcDbEntity
  8
Bars
100
AcDbPolyline
 90
        2
 70
     0
 43
0.0445450000000005
 10
6.666998499999998
 20
2.049383200000001
 10
6.666998499999998
 20
2.004838200000001
  0
LWPOLYLINE
  5
14F4
330
A
100
AcDbEntity
  8
Bars
100
AcDbPolyline
 90
        2
 70
     0
 10
6.622453499999998
 20
2.049383200000001
 40
0.008909
 41
0.008909
 10
6.622453499999998
 20
2.004838200000001
 40
0.017818
 41
0.017818
  0
LWPOLYLINE
  5
14F5
330
A
100
AcDbEntity
  8
Bars
100
AcDbPolyline
 90
        2
 70
     0
 10
6.6046355
 20
2.049383200000001
 40
0.008909
 41
0.008909
 10
6.6046355
 20
2.004838200000001
 40
0.017818
 41
0.017818
  0
MTEXT
  5
14F6
330
A
100
AcDbEntity
  8
Bars
100
AcDbMText
 10
6.780000000000004
 20
1.824913150000028
 30
0.0
 40
0.05
 41
0.03776
 71
     7
 72
     5
  1
{\fArial Narrow|b0|i0|c0|p34;1}
  7
ROMANT
 73
     1
 44
1.0
1001
ACAD
1000
MTEXTBEGIN
1070
    73
1070
     1
1070
    44
1040
1.0
1070
    74
1070
     0
1000
MTEXTEND
  0
LWPOLYLINE
  5
14F7
330
A
100
AcDbEntity
  8
Bars
100
AcDbPolyline
 90
        2
 70
     0
 10
6.709999999999999
 20
1.829913149999999
 40
0.01
 41
0.01
 10
6.759999999999999
 20
1.829913149999999
 40
0.02
 41
0.02
  0
LWPOLYLINE
  5
14F8
330
A
100
AcDbEntity
  8
Bars
100
AcDbPolyline
 90
        2
 70
     0
 10
6.709999999999999
 20
1.849913150000002
 40
0.01
 41
0.01
 10
6.759999999999999
 20
1.849913150000002
 40
0.02
 41
0.02
  0
LWPOLYLINE
  5
14F9
330
A
100
AcDbEntity
  8
Bars
100
AcDbPolyline
 90
        2
 70
     0
 10
6.709999999999999
 20
1.869913150000002
 40
0.01
 41
0.01
 10
6.759999999999999
 20
1.869913150000002
 40
0.02
 41
0.02
  0
MTEXT
  5
14FA
330
A
100
AcDbEntity
  8
Bars
100
AcDbMText
 10
6.767937000000001
 20
1.968086450000011
 30
0.0
 40
0.0198425
 41
0.01498
 71
     7
 72
     5
  1
{\fArial Narrow|b0|i0|c0|p34;3}
  7
ROMANT
 73
     1
 44
1.0
1001
ACAD
1000
MTEXTBEGIN
1070
    73
1070
     1
1070
    44
1040
1.0
1070
    74
1070
     0
1000
MTEXTEND
  0
LWPOLYLINE
  5
14FB
330
A
100
AcDbEntity
  8
Bars
100
AcDbPolyline
 90
        2
 70
     0
 10
6.730236249999999
 20
1.98792895
 40
0.0039685
 41
0.0039685
 10
6.730236249999999
 20
1.968086450000001
 40
0.007937
 41
0.007937
  0
LWPOLYLINE
  5
14FC
330
A
100
AcDbEntity
  8
Bars
100
AcDbPolyline
 90
        2
 70
     0
 10
6.722299249999998
 20
1.98792895
 40
0.0039685
 41
0.0039685
 10
6.722299249999998
 20
1.968086450000001
 40
0.007937
 41
0.007937
  0
LWPOLYLINE
  5
14FD
330
A
100
AcDbEntity
  8
Bars
100
AcDbPolyline
 90
        2
 70
     0
 10
6.714362249999998
 20
1.98792895
 40
0.0039685
 41
0.0039685
 10
6.714362249999998
 20
1.968086450000001
 40
0.007937
 41
0.007937
  0
LWPOLYLINE
  5
14FE
330
A
100
AcDbEntity
  8
Bars
100
AcDbPolyline
 90
        2
 70
     0
 10
6.7401575
 20
1.9700707
 40
0.0039685
 41
0.0039685
 10
6.759999999999999
 20
1.9700707
 40
0.007937
 41
0.007937
  0
LWPOLYLINE
  5
14FF
330
A
100
AcDbEntity
  8
Bars
100
AcDbPolyline
 90
        2
 70
     0
 10
6.745969249999999
 20
1.90605125
 40
0.00280615
 41
0.00280615
 10
6.759999999999999
 20
1.90605125
 40
0.0056123
 41
0.0056123
  0
LWPOLYLINE
  5
1500
330
A
100
AcDbEntity
  8
Bars
100
AcDbPolyline
 90
        2
 70
     0
 10
6.745969249999999
 20
1.91166355
 40
0.00280615
 41
0.00280615
 10
6.759999999999999
 20
1.91166355
 40
0.0056123
 41
0.0056123
  0
LWPOLYLINE
  5
1501
330
A
100
AcDbEntity
  8
Bars
100
AcDbPolyline
 90
        2
 70
     0
 10
6.745969249999999
 20
1.917275849999999
 40
0.00280615
 41
0.00280615
 10
6.759999999999999
 20
1.917275849999999
 40
0.0056123
 41
0.0056123
  0
LWPOLYLINE
  5
1502
330
A
100
AcDbEntity
  8
Bars
100
AcDbPolyline
 90
        2
 70
     0
 10
6.744250999999998
 20
1.924978525
 40
0.0031498
 41
0.0031498
 10
6.759999999999999
 20
1.924978525
 40
0.0062996
 41
0.0062996
  0
LWPOLYLINE
  5
1503
330
A
100
AcDbEntity
  8
Bars
100
AcDbPolyline
 90
        2
 70
     0
 10
6.744250999999998
 20
1.931278125000002
 40
0.0031498
 41
0.0031498
 10
6.759999999999999
 20
1.931278125000002
 40
0.0062996
 41
0.0062996
  0
LWPOLYLINE
  5
1504
330
A
100
AcDbEntity
  8
Bars
100
AcDbPolyline
 90
        2
 70
     0
 10
6.744250999999998
 20
1.937577725
 40
0.0031498
 41
0.0031498
 10
6.759999999999999
 20
1.937577725
 40
0.0062996
 41
0.0062996
  0
LWPOLYLINE
  5
1505
330
A
100
AcDbEntity
  8
Bars
100
AcDbPolyline
 90
        2
 70
     0
 10
6.74232225
 20
1.946223724999999
 40
0.00353555
 41
0.00353555
 10
6.759999999999999
 20
1.946223724999999
 40
0.0070711
 41
0.0070711
  0
LWPOLYLINE
  5
1506
330
A
100
AcDbEntity
  8
Bars
100
AcDbPolyline
 90
        2
 70
     0
 10
6.74232225
 20
1.953294825
 40
0.00353555
 41
0.00353555
 10
6.759999999999999
 20
1.953294825
 40
0.0070711
 41
0.0070711
  0
LWPOLYLINE
  5
1507
330
A
100
AcDbEntity
  8
Bars
100
AcDbPolyline
 90
        2
 70
     0
 10
6.74232225
 20
1.960365925000001
 40
0.00353555
 41
0.00353555
 10
6.759999999999999
 20
1.960365925000001
 40
0.0070711
 41
0.0070711
  0
LWPOLYLINE
  5
1508
330
A
100
AcDbEntity
  8
Bars
100
AcDbPolyline
 90
        2
 70
     0
 10
6.738953874999999
 20
1.918678925000001
 40
0.00280615
 41
0.00280615
 10
6.738953874999999
 20
1.904648175000001
 40
0.0056123
 41
0.0056123
  0
LWPOLYLINE
  5
1509
330
A
100
AcDbEntity
  8
Bars
100
AcDbPolyline
 90
        2
 70
     0
 10
6.733341575
 20
1.918678925000001
 40
0.00280615
 41
0.00280615
 10
6.733341575
 20
1.904648175000001
 40
0.0056123
 41
0.0056123
  0
LWPOLYLINE
  5
150A
330
A
100
AcDbEntity
  8
Bars
100
AcDbPolyline
 90
        2
 70
     0
 10
6.727729274999999
 20
1.918678925000001
 40
0.00280615
 41
0.00280615
 10
6.727729274999999
 20
1.904648175000001
 40
0.0056123
 41
0.0056123
  0
LWPOLYLINE
  5
150B
330
A
100
AcDbEntity
  8
Bars
100
AcDbPolyline
 90
        2
 70
     0
 10
6.736376499999998
 20
1.939152625000001
 40
0.0031498
 41
0.0031498
 10
6.736376499999998
 20
1.923403625000002
 40
0.0062996
 41
0.0062996
  0
LWPOLYLINE
  5
150C
330
A
100
AcDbEntity
  8
Bars
100
AcDbPolyline
 90
        2
 70
     0
 10
6.7300769
 20
1.939152625000001
 40
0.0031498
 41
0.0031498
 10
6.7300769
 20
1.923403625000002
 40
0.0062996
 41
0.0062996
  0
LWPOLYLINE
  5
150D
330
A
100
AcDbEntity
  8
Bars
100
AcDbPolyline
 90
        2
 70
     0
 10
6.7237773
 20
1.939152625000001
 40
0.0031498
 41
0.0031498
 10
6.7237773
 20
1.923403625000002
 40
0.0062996
 41
0.0062996
  0
LWPOLYLINE
  5
150E
330
A
100
AcDbEntity
  8
Bars
100
AcDbPolyline
 90
        2
 70
     0
 10
6.733483374999998
 20
1.962133700000002
 40
0.00353555
 41
0.00353555
 10
6.733483374999998
 20
1.944455950000001
 40
0.0070711
 41
0.0070711
  0
LWPOLYLINE
  5
150F
330
A
100
AcDbEntity
  8
Bars
100
AcDbPolyline
 90
        2
 70
     0
 10
6.726412274999999
 20
1.962133700000002
 40
0.00353555
 41
0.00353555
 10
6.726412274999999
 20
1.944455950000001
 40
0.0070711
 41
0.0070711
  0
LWPOLYLINE
  5
1510
330
A
100
AcDbEntity
  8
Bars
100
AcDbPolyline
 90
        2
 70
     0
 10
6.719341175
 20
1.962133700000002
 40
0.00353555
 41
0.00353555
 10
6.719341175
 20
1.944455950000001
 40
0.0070711
 41
0.0070711
  0
MTEXT
  5
1511
330
A
100
AcDbEntity
  8
Bars
100
AcDbMText
 10
6.765612300000002
 20
1.904648175000037
 30
0.0
 40
0.01403075
 41
0.0106
 71
     7
 72
     5
  1
{\fArial Narrow|b0|i0|c0|p34;6}
  7
ROMANT
 73
     1
 44
1.0
1001
ACAD
1000
MTEXTBEGIN
1070
    73
1070
     1
1070
    44
1040
1.0
1070
    74
1070
     0
1000
MTEXTEND
  0
MTEXT
  5
1512
330
A
100
AcDbEntity
  8
Bars
100
AcDbMText
 10
6.766299600000001
 20
1.923403624999991
 30
0.0
 40
0.015749
 41
0.0119
 71
     7
 72
     5
  1
{\fArial Narrow|b0|i0|c0|p34;5}
  7
ROMANT
 73
     1
 44
1.0
1001
ACAD
1000
MTEXTBEGIN
1070
    73
1070
     1
1070
    44
1040
1.0
1070
    74
1070
     0
1000
MTEXTEND
  0
MTEXT
  5
1513
330
A
100
AcDbEntity
  8
Bars
100
AcDbMText
 10
6.767071100000002
 20
1.944455950000012
 30
0.0
 40
0.01767775
 41
0.01336
 71
     7
 72
     5
  1
{\fArial Narrow|b0|i0|c0|p34;4}
  7
ROMANT
 73
     1
 44
1.0
1001
ACAD
1000
MTEXTBEGIN
1070
    73
1070
     1
1070
    44
1040
1.0
1070
    74
1070
     0
1000
MTEXTEND
  0
LWPOLYLINE
  5
1514
330
A
100
AcDbEntity
  8
Bars
100
AcDbPolyline
 90
        2
 70
     0
 10
6.737727499999998
 20
1.996837949999999
 40
0.0044545
 41
0.0044545
 10
6.759999999999999
 20
1.996837949999999
 40
0.008909
 41
0.008909
  0
LWPOLYLINE
  5
1515
330
A
100
AcDbEntity
  8
Bars
100
AcDbPolyline
 90
        2
 70
     0
 10
6.737727499999998
 20
2.005746950000002
 40
0.0044545
 41
0.0044545
 10
6.759999999999999
 20
2.005746950000002
 40
0.008909
 41
0.008909
  0
LWPOLYLINE
  5
1516
330
A
100
AcDbEntity
  8
Bars
100
AcDbPolyline
 90
        2
 70
     0
 10
6.737727499999998
 20
2.014655950000001
 40
0.0044545
 41
0.0044545
 10
6.759999999999999
 20
2.014655950000001
 40
0.008909
 41
0.008909
  0
LWPOLYLINE
  5
1517
330
A
100
AcDbEntity
  8
Bars
100
AcDbPolyline
 90
        2
 70
     0
 10
6.7401575
 20
1.978007700000002
 40
0.0039685
 41
0.0039685
 10
6.759999999999999
 20
1.978007700000002
 40
0.007937
 41
0.007937
  0
LWPOLYLINE
  5
1518
330
A
100
AcDbEntity
  8
Bars
100
AcDbPolyline
 90
        2
 70
     0
 10
6.7401575
 20
1.985944700000001
 40
0.0039685
 41
0.0039685
 10
6.759999999999999
 20
1.985944700000001
 40
0.007937
 41
0.007937
  0
LWPOLYLINE
  5
1519
330
A
100
AcDbEntity
  8
Bars
100
AcDbPolyline
 90
        2
 70
     0
 10
6.734999999999999
 20
2.0268832
 40
0.005
 41
0.005
 10
6.759999999999999
 20
2.0268832
 40
0.01
 41
0.01
  0
LWPOLYLINE
  5
151A
330
A
100
AcDbEntity
  8
Bars
100
AcDbPolyline
 90
        2
 70
     0
 10
6.734999999999999
 20
2.036883200000001
 40
0.005
 41
0.005
 10
6.759999999999999
 20
2.036883200000001
 40
0.01
 41
0.01
  0
LWPOLYLINE
  5
151B
330
A
100
AcDbEntity
  8
Bars
100
AcDbPolyline
 90
        2
 70
     0
 10
6.734999999999999
 20
2.046883199999999
 40
0.005
 41
0.005
 10
6.759999999999999
 20
2.046883199999999
 40
0.01
 41
0.01
  0
LWPOLYLINE
  5
151C
330
A
100
AcDbEntity
  8
Bars
100
AcDbPolyline
 90
        2
 70
     0
 10
6.72659125
 20
2.016883200000002
 40
0.0044545
 41
0.0044545
 10
6.72659125
 20
1.994610699999999
 40
0.008909
 41
0.008909
  0
LWPOLYLINE
  5
151D
330
A
100
AcDbEntity
  8
Bars
100
AcDbPolyline
 90
        2
 70
     0
 10
6.717682249999999
 20
2.016883200000002
 40
0.0044545
 41
0.0044545
 10
6.717682249999999
 20
1.994610699999999
 40
0.008909
 41
0.008909
  0
LWPOLYLINE
  5
151E
330
A
100
AcDbEntity
  8
Bars
100
AcDbPolyline
 90
        2
 70
     0
 10
6.70877325
 20
2.016883200000002
 40
0.0044545
 41
0.0044545
 10
6.70877325
 20
1.994610699999999
 40
0.008909
 41
0.008909
  0
LWPOLYLINE
  5
151F
330
A
100
AcDbEntity
  8
Bars
100
AcDbPolyline
 90
        2
 70
     0
 10
6.7225
 20
2.049383200000001
 40
0.005
 41
0.005
 10
6.7225
 20
2.024383200000002
 40
0.01
 41
0.01
  0
LWPOLYLINE
  5
1520
330
A
100
AcDbEntity
  8
Bars
100
AcDbPolyline
 90
        2
 70
     0
 10
6.712499999999998
 20
2.049383200000001
 40
0.005
 41
0.005
 10
6.712499999999998
 20
2.024383200000002
 40
0.01
 41
0.01
  0
LWPOLYLINE
  5
1521
330
A
100
AcDbEntity
  8
Bars
100
AcDbPolyline
 90
        2
 70
     0
 10
6.7025
 20
2.049383200000001
 40
0.005
 41
0.005
 10
6.7025
 20
2.024383200000002
 40
0.01
 41
0.01
  0
MTEXT
  5
1522
330
A
100
AcDbEntity
  8
Bars
100
AcDbMText
 10
6.768908999999998
 20
1.994610700000013
 30
0.0
 40
0.0222725
 41
0.01682
 71
     7
 72
     5
  1
{\fArial Narrow|b0|i0|c0|p34;2}
  7
ROMANT
 73
     1
 44
1.0
1001
ACAD
1000
MTEXTBEGIN
1070
    73
1070
     1
1070
    44
1040
1.0
1070
    74
1070
     0
1000
MTEXTEND
  0
MTEXT
  5
1523
330
A
100
AcDbEntity
  8
Bars
100
AcDbMText
 10
6.573454000000001
 20
2.067201200000017
 30
0.0
 40
0.044545
 41
0.0401
 71
     8
 72
     5
  1
{\fArial Narrow|b0|i0|c0|p34;-2}
  7
ROMANT
 73
     1
 44
1.0
1001
ACAD
1000
MTEXTBEGIN
1070
    73
1070
     1
1070
    44
1040
1.0
1070
    74
1070
     0
1000
MTEXTEND
  0
MTEXT
  5
1524
330
A
100
AcDbEntity
  8
Bars
100
AcDbMText
 10
6.73
 20
2.067201200000017
 30
0.0
 40
0.044545
 41
0.04009
 71
     8
 72
     5
  1
{\fArial Narrow|b0|i0|c0|p34;-1}
  7
ROMANT
 73
     1
 44
1.0
1001
ACAD
1000
MTEXTBEGIN
1070
    73
1070
     1
1070
    44
1040
1.0
1070
    74
1070
     0
1000
MTEXTEND
  0
MTEXT
  5
1525
330
A
100
AcDbEntity
  8
Bars
100
AcDbMText
 10
6.635545500000002
 20
1.956122700000015
 30
0.0
 40
0.01113625
 41
0.010025
 71
     9
 72
     5
  1
{\fArial Narrow|b0|i0|c0|p34;2}
  7
ROMANT
 73
     1
 44
1.0
1001
ACAD
1000
MTEXTBEGIN
1070
    73
1070
     1
1070
    44
1040
1.0
1070
    74
1070
     0
1000
MTEXTEND
  0
MTEXT
  5
1526
330
A
100
AcDbEntity
  8
Bars
100
AcDbMText
 10
6.702500000000004
 20
1.961008950000032
 30
0.0
 40
0.00625
 41
0.00472
 71
     7
 72
     5
  1
{\fArial Narrow|b0|i0|c0|p34;1}
  7
ROMANT
 73
     1
 44
1.0
1001
ACAD
1000
MTEXTBEGIN
1070
    73
1070
     1
1070
    44
1040
1.0
1070
    74
1070
     0
1000
MTEXTEND
  0
MTEXT
  5
1527
330
A
100
AcDbEntity
  8
Bars
100
AcDbMText
 10
6.636850200000003
 20
1.920519162500024
 30
0.0
 40
0.0078745
 41
0.007085
 71
     9
 72
     5
  1
{\fArial Narrow|b0|i0|c0|p34;5}
  7
ROMANT
 73
     1
 44
1.0
1001
ACAD
1000
MTEXTBEGIN
1070
    73
1070
     1
1070
    44
1040
1.0
1070
    74
1070
     0
1000
MTEXTEND
  0
MTEXT
  5
1528
330
A
100
AcDbEntity
  8
Bars
100
AcDbMText
 10
6.636464450000001
 20
1.931045325000013
 30
0.0
 40
0.008838875
 41
0.007955
 71
     9
 72
     5
  1
{\fArial Narrow|b0|i0|c0|p34;4}
  7
ROMANT
 73
     1
 44
1.0
1001
ACAD
1000
MTEXTBEGIN
1070
    73
1070
     1
1070
    44
1040
1.0
1070
    74
1070
     0
1000
MTEXTEND
  0
MTEXT
  5
1529
330
A
100
AcDbEntity
  8
Bars
100
AcDbMText
 10
6.636031499999997
 20
1.942860575000015
 30
0.0
 40
0.00992125
 41
0.00893
 71
     9
 72
     5
  1
{\fArial Narrow|b0|i0|c0|p34;3}
  7
ROMANT
 73
     1
 44
1.0
1001
ACAD
1000
MTEXTBEGIN
1070
    73
1070
     1
1070
    44
1040
1.0
1070
    74
1070
     0
1000
MTEXTEND
  0
LWPOLYLINE
  5
152A
330
A
100
AcDbEntity
  8
Bars
100
AcDbPolyline
 90
        2
 70
     0
 10
6.658111349999998
 20
1.928393662499999
 40
0.0015749
 41
0.0015749
 10
6.658111349999998
 20
1.920519162499999
 40
0.0031498
 41
0.0031498
  0
LWPOLYLINE
  5
152B
330
A
100
AcDbEntity
  8
Bars
100
AcDbPolyline
 90
        2
 70
     0
 10
6.65181175
 20
1.928393662499999
 40
0.0015749
 41
0.0015749
 10
6.65181175
 20
1.920519162499999
 40
0.0031498
 41
0.0031498
  0
LWPOLYLINE
  5
152C
330
A
100
AcDbEntity
  8
Bars
100
AcDbPolyline
 90
        2
 70
     0
 10
6.6478745
 20
1.927606212500002
 40
0.0015749
 41
0.0015749
 10
6.64
 20
1.927606212500002
 40
0.0031498
 41
0.0031498
  0
LWPOLYLINE
  5
152D
330
A
100
AcDbEntity
  8
Bars
100
AcDbPolyline
 90
        2
 70
     0
 10
6.654961549999999
 20
1.928393662499999
 40
0.0015749
 41
0.0015749
 10
6.654961549999999
 20
1.920519162499999
 40
0.0031498
 41
0.0031498
  0
LWPOLYLINE
  5
152E
330
A
100
AcDbEntity
  8
Bars
100
AcDbPolyline
 90
        2
 70
     0
 10
6.647015374999998
 20
1.917455275000001
 40
0.001403075
 41
0.001403075
 10
6.64
 20
1.917455275000001
 40
0.00280615
 41
0.00280615
  0
LWPOLYLINE
  5
152F
330
A
100
AcDbEntity
  8
Bars
100
AcDbPolyline
 90
        2
 70
     0
 10
6.647015374999998
 20
1.914649125
 40
0.001403075
 41
0.001403075
 10
6.64
 20
1.914649125
 40
0.00280615
 41
0.00280615
  0
LWPOLYLINE
  5
1530
330
A
100
AcDbEntity
  8
Bars
100
AcDbPolyline
 90
        2
 70
     0
 10
6.647015374999998
 20
1.911842975000002
 40
0.001403075
 41
0.001403075
 10
6.64
 20
1.911842975000002
 40
0.00280615
 41
0.00280615
  0
LWPOLYLINE
  5
1531
330
A
100
AcDbEntity
  8
Bars
100
AcDbPolyline
 90
        2
 70
     0
 10
6.6478745
 20
1.924456412499999
 40
0.0015749
 41
0.0015749
 10
6.64
 20
1.924456412499999
 40
0.0031498
 41
0.0031498
  0
LWPOLYLINE
  5
1532
330
A
100
AcDbEntity
  8
Bars
100
AcDbPolyline
 90
        2
 70
     0
 10
6.6478745
 20
1.9213066125
 40
0.0015749
 41
0.0015749
 10
6.64
 20
1.9213066125
 40
0.0031498
 41
0.0031498
  0
MTEXT
  5
1533
330
A
100
AcDbEntity
  8
Bars
100
AcDbMText
 10
6.637193850000002
 20
1.91114143750001
 30
0.0
 40
0.007015375
 41
0.006315
 71
     9
 72
     5
  1
{\fArial Narrow|b0|i0|c0|p34;6}
  7
ROMANT
 73
     1
 44
1.0
1001
ACAD
1000
MTEXTBEGIN
1070
    73
1070
     1
1070
    44
1040
1.0
1070
    74
1070
     0
1000
MTEXTEND
  0
LWPOLYLINE
  5
1534
330
A
100
AcDbEntity
  8
Bars
100
AcDbPolyline
 90
        2
 70
     0
 10
6.656135362499998
 20
1.918156812500001
 40
0.001403075
 41
0.001403075
 10
6.656135362499998
 20
1.911141437499999
 40
0.00280615
 41
0.00280615
  0
LWPOLYLINE
  5
1535
330
A
100
AcDbEntity
  8
Bars
100
AcDbPolyline
 90
        2
 70
     0
 10
6.650523062499999
 20
1.918156812500001
 40
0.001403075
 41
0.001403075
 10
6.650523062499999
 20
1.911141437499999
 40
0.00280615
 41
0.00280615
  0
LWPOLYLINE
  5
1536
330
A
100
AcDbEntity
  8
Bars
100
AcDbPolyline
 90
        2
 70
     0
 10
6.653329212499999
 20
1.918156812500001
 40
0.001403075
 41
0.001403075
 10
6.653329212499999
 20
1.911141437499999
 40
0.00280615
 41
0.00280615
  0
LWPOLYLINE
  5
1537
330
A
100
AcDbEntity
  8
Bars
100
AcDbPolyline
 90
        2
 70
     0
 10
6.67125
 20
1.923641437500002
 40
0.0025
 41
0.0025
 10
6.67125
 20
1.911141437499999
 40
0.005
 41
0.005
  0
LWPOLYLINE
  5
1538
330
A
100
AcDbEntity
  8
Bars
100
AcDbPolyline
 90
        2
 70
     0
 10
6.681249999999998
 20
1.923641437500002
 40
0.0025
 41
0.0025
 10
6.681249999999998
 20
1.911141437499999
 40
0.005
 41
0.005
  0
LWPOLYLINE
  5
1539
330
A
100
AcDbEntity
  8
Bars
100
AcDbPolyline
 90
        2
 70
     0
 10
6.676249999999999
 20
1.923641437500002
 40
0.0025
 41
0.0025
 10
6.676249999999999
 20
1.911141437499999
 40
0.005
 41
0.005
  0
LWPOLYLINE
  5
153A
330
A
100
AcDbEntity
  8
Bars
100
AcDbPolyline
 90
        2
 70
     0
 10
6.658850375
 20
1.952781825000002
 40
0.00198425
 41
0.00198425
 10
6.658850375
 20
1.942860575
 40
0.0039685
 41
0.0039685
  0
LWPOLYLINE
  5
153B
330
A
100
AcDbEntity
  8
Bars
100
AcDbPolyline
 90
        2
 70
     0
 10
6.654881874999999
 20
1.952781825000002
 40
0.00198425
 41
0.00198425
 10
6.654881874999999
 20
1.942860575
 40
0.0039685
 41
0.0039685
  0
LWPOLYLINE
  5
153C
330
A
100
AcDbEntity
  8
Bars
100
AcDbPolyline
 90
        2
 70
     0
 10
6.64992125
 20
1.947821199999999
 40
0.00198425
 41
0.00198425
 10
6.64
 20
1.947821199999999
 40
0.0039685
 41
0.0039685
  0
LWPOLYLINE
  5
153D
330
A
100
AcDbEntity
  8
Bars
100
AcDbPolyline
 90
        2
 70
     0
 10
6.64992125
 20
1.9438527
 40
0.00198425
 41
0.00198425
 10
6.64
 20
1.9438527
 40
0.0039685
 41
0.0039685
  0
LWPOLYLINE
  5
153E
330
A
100
AcDbEntity
  8
Bars
100
AcDbPolyline
 90
        2
 70
     0
 10
6.648838874999999
 20
1.939000312499999
 40
0.001767775
 41
0.001767775
 10
6.64
 20
1.939000312499999
 40
0.00353555
 41
0.00353555
  0
LWPOLYLINE
  5
153F
330
A
100
AcDbEntity
  8
Bars
100
AcDbPolyline
 90
        2
 70
     0
 10
6.648838874999999
 20
1.9354647625
 40
0.001767775
 41
0.001767775
 10
6.64
 20
1.9354647625
 40
0.00353555
 41
0.00353555
  0
LWPOLYLINE
  5
1540
330
A
100
AcDbEntity
  8
Bars
100
AcDbPolyline
 90
        2
 70
     0
 10
6.648838874999999
 20
1.931929212500001
 40
0.001767775
 41
0.001767775
 10
6.64
 20
1.931929212500001
 40
0.00353555
 41
0.00353555
  0
LWPOLYLINE
  5
1541
330
A
100
AcDbEntity
  8
Bars
100
AcDbPolyline
 90
        2
 70
     0
 10
6.6532583125
 20
1.939884200000001
 40
0.001767775
 41
0.001767775
 10
6.6532583125
 20
1.931045324999999
 40
0.00353555
 41
0.00353555
  0
LWPOLYLINE
  5
1542
330
A
100
AcDbEntity
  8
Bars
100
AcDbPolyline
 90
        2
 70
     0
 10
6.656793862499998
 20
1.939884200000001
 40
0.001767775
 41
0.001767775
 10
6.656793862499998
 20
1.931045324999999
 40
0.00353555
 41
0.00353555
  0
LWPOLYLINE
  5
1543
330
A
100
AcDbEntity
  8
Bars
100
AcDbPolyline
 90
        2
 70
     0
 10
6.65113625
 20
1.966145324999999
 40
0.00222725
 41
0.00222725
 10
6.64
 20
1.966145324999999
 40
0.0044545
 41
0.0044545
  0
LWPOLYLINE
  5
1544
330
A
100
AcDbEntity
  8
Bars
100
AcDbPolyline
 90
        2
 70
     0
 10
6.65113625
 20
1.961690825000001
 40
0.00222725
 41
0.00222725
 10
6.64
 20
1.961690825000001
 40
0.0044545
 41
0.0044545
  0
LWPOLYLINE
  5
1545
330
A
100
AcDbEntity
  8
Bars
100
AcDbPolyline
 90
        2
 70
     0
 10
6.65113625
 20
1.957236325
 40
0.00222725
 41
0.00222725
 10
6.64
 20
1.957236325
 40
0.0044545
 41
0.0044545
  0
LWPOLYLINE
  5
1546
330
A
100
AcDbEntity
  8
Bars
100
AcDbPolyline
 90
        2
 70
     0
 10
6.64992125
 20
1.951789700000002
 40
0.00198425
 41
0.00198425
 10
6.64
 20
1.951789700000002
 40
0.0039685
 41
0.0039685
  0
LWPOLYLINE
  5
1547
330
A
100
AcDbEntity
  8
Bars
100
AcDbPolyline
 90
        2
 70
     0
 10
6.656704375
 20
1.967258950000001
 40
0.00222725
 41
0.00222725
 10
6.656704375
 20
1.956122700000001
 40
0.0044545
 41
0.0044545
  0
LWPOLYLINE
  5
1548
330
A
100
AcDbEntity
  8
Bars
100
AcDbPolyline
 90
        2
 70
     0
 10
6.662818874999999
 20
1.952781825000002
 40
0.00198425
 41
0.00198425
 10
6.662818874999999
 20
1.942860575
 40
0.0039685
 41
0.0039685
  0
LWPOLYLINE
  5
1549
330
A
100
AcDbEntity
  8
Bars
100
AcDbPolyline
 90
        2
 70
     0
 10
6.660329412499999
 20
1.939884200000001
 40
0.001767775
 41
0.001767775
 10
6.660329412499999
 20
1.931045324999999
 40
0.00353555
 41
0.00353555
  0
LWPOLYLINE
  5
154A
330
A
100
AcDbEntity
  8
Bars
100
AcDbPolyline
 90
        4
 70
     1
 43
0.0
 10
6.682317749999999
 20
1.967258950000001
 10
6.671181499999999
 20
1.967258950000001
 10
6.671181499999999
 20
1.956122700000001
 10
6.682317749999999
 20
1.956122700000001
  0
LWPOLYLINE
  5
154B
330
A
100
AcDbEntity
  8
Bars
100
AcDbPolyline
 90
        2
 70
     0
 43
0.0111362500000001
 10
6.676749624999999
 20
1.967258950000001
 10
6.676749624999999
 20
1.956122700000001
  0
LWPOLYLINE
  5
154C
330
A
100
AcDbEntity
  8
Bars
100
AcDbPolyline
 90
        2
 70
     0
 10
6.665613374999999
 20
1.967258950000001
 40
0.00222725
 41
0.00222725
 10
6.665613374999999
 20
1.956122700000001
 40
0.0044545
 41
0.0044545
  0
LWPOLYLINE
  5
154D
330
A
100
AcDbEntity
  8
Bars
100
AcDbPolyline
 90
        2
 70
     0
 10
6.661158874999999
 20
1.967258950000001
 40
0.00222725
 41
0.00222725
 10
6.661158874999999
 20
1.956122700000001
 40
0.0044545
 41
0.0044545
  0
MTEXT
  5
154E
330
A
100
AcDbEntity
  8
Bars
100
AcDbMText
 10
6.705
 20
1.91114143750001
 30
0.0
 40
0.0125
 41
0.00944
 71
     7
 72
     5
  1
{\fArial Narrow|b0|i0|c0|p34;1}
  7
ROMANT
 73
     1
 44
1.0
1001
ACAD
1000
MTEXTBEGIN
1070
    73
1070
     1
1070
    44
1040
1.0
1070
    74
1070
     0
1000
MTEXTEND
  0
LWPOLYLINE
  5
154F
330
A
100
AcDbEntity
  8
Bars
100
AcDbPolyline
 90
        2
 70
     0
 10
6.6875
 20
1.912391437500001
 40
0.0025
 41
0.0025
 10
6.699999999999999
 20
1.912391437500001
 40
0.005
 41
0.005
  0
LWPOLYLINE
  5
1550
330
A
100
AcDbEntity
  8
Bars
100
AcDbPolyline
 90
        2
 70
     0
 10
6.6875
 20
1.9173914375
 40
0.0025
 41
0.0025
 10
6.699999999999999
 20
1.9173914375
 40
0.005
 41
0.005
  0
LWPOLYLINE
  5
1551
330
A
100
AcDbEntity
  8
Bars
100
AcDbPolyline
 90
        2
 70
     0
 10
6.6875
 20
1.922391437499999
 40
0.0025
 41
0.0025
 10
6.699999999999999
 20
1.922391437499999
 40
0.005
 41
0.005
  0
MTEXT
  5
1552
330
A
100
AcDbEntity
  8
Bars
100
AcDbMText
 10
6.70198425
 20
1.946934762500024
 30
0.0
 40
0.004960625
 41
0.003745
 71
     7
 72
     5
  1
{\fArial Narrow|b0|i0|c0|p34;3}
  7
ROMANT
 73
     1
 44
1.0
1001
ACAD
1000
MTEXTBEGIN
1070
    73
1070
     1
1070
    44
1040
1.0
1070
    74
1070
     0
1000
MTEXTEND
  0
LWPOLYLINE
  5
1553
330
A
100
AcDbEntity
  8
Bars
100
AcDbPolyline
 90
        2
 70
     0
 10
6.692559062499999
 20
1.951895387500002
 40
0.000992125
 41
0.000992125
 10
6.692559062499999
 20
1.946934762499999
 40
0.00198425
 41
0.00198425
  0
LWPOLYLINE
  5
1554
330
A
100
AcDbEntity
  8
Bars
100
AcDbPolyline
 90
        2
 70
     0
 10
6.690574812499999
 20
1.951895387500002
 40
0.000992125
 41
0.000992125
 10
6.690574812499999
 20
1.946934762499999
 40
0.00198425
 41
0.00198425
  0
LWPOLYLINE
  5
1555
330
A
100
AcDbEntity
  8
Bars
100
AcDbPolyline
 90
        2
 70
     0
 10
6.688590562499999
 20
1.951895387500002
 40
0.000992125
 41
0.000992125
 10
6.688590562499999
 20
1.946934762499999
 40
0.00198425
 41
0.00198425
  0
LWPOLYLINE
  5
1556
330
A
100
AcDbEntity
  8
Bars
100
AcDbPolyline
 90
        2
 70
     0
 10
6.695039375
 20
1.947430825000001
 40
0.000992125
 41
0.000992125
 10
6.699999999999999
 20
1.947430825000001
 40
0.00198425
 41
0.00198425
  0
LWPOLYLINE
  5
1557
330
A
100
AcDbEntity
  8
Bars
100
AcDbPolyline
 90
        2
 70
     0
 10
6.6964923125
 20
1.9314259625
 40
0.0007015375
 41
0.0007015375
 10
6.699999999999999
 20
1.9314259625
 40
0.001403075
 41
0.001403075
  0
LWPOLYLINE
  5
1558
330
A
100
AcDbEntity
  8
Bars
100
AcDbPolyline
 90
        2
 70
     0
 10
6.6964923125
 20
1.932829037499999
 40
0.0007015375
 41
0.0007015375
 10
6.699999999999999
 20
1.932829037499999
 40
0.001403075
 41
0.001403075
  0
LWPOLYLINE
  5
1559
330
A
100
AcDbEntity
  8
Bars
100
AcDbPolyline
 90
        2
 70
     0
 10
6.6964923125
 20
1.934232112500001
 40
0.0007015375
 41
0.0007015375
 10
6.699999999999999
 20
1.934232112500001
 40
0.001403075
 41
0.001403075
  0
LWPOLYLINE
  5
155A
330
A
100
AcDbEntity
  8
Bars
100
AcDbPolyline
 90
        2
 70
     0
 10
6.696062749999999
 20
1.936157781249999
 40
0.00078745
 41
0.00078745
 10
6.699999999999999
 20
1.936157781249999
 40
0.0015749
 41
0.0015749
  0
LWPOLYLINE
  5
155B
330
A
100
AcDbEntity
  8
Bars
100
AcDbPolyline
 90
        2
 70
     0
 10
6.696062749999999
 20
1.93773268125
 40
0.00078745
 41
0.00078745
 10
6.699999999999999
 20
1.93773268125
 40
0.0015749
 41
0.0015749
  0
LWPOLYLINE
  5
155C
330
A
100
AcDbEntity
  8
Bars
100
AcDbPolyline
 90
        2
 70
     0
 10
6.696062749999999
 20
1.939307581250002
 40
0.00078745
 41
0.00078745
 10
6.699999999999999
 20
1.939307581250002
 40
0.0015749
 41
0.0015749
  0
LWPOLYLINE
  5
155D
330
A
100
AcDbEntity
  8
Bars
100
AcDbPolyline
 90
        2
 70
     0
 10
6.695580562499999
 20
1.941469081250001
 40
0.0008838875
 41
0.0008838875
 10
6.699999999999999
 20
1.941469081250001
 40
0.001767775
 41
0.001767775
  0
LWPOLYLINE
  5
155E
330
A
100
AcDbEntity
  8
Bars
100
AcDbPolyline
 90
        2
 70
     0
 10
6.695580562499999
 20
1.943236856249999
 40
0.0008838875
 41
0.0008838875
 10
6.699999999999999
 20
1.943236856249999
 40
0.001767775
 41
0.001767775
  0
LWPOLYLINE
  5
155F
330
A
100
AcDbEntity
  8
Bars
100
AcDbPolyline
 90
        2
 70
     0
 10
6.695580562499999
 20
1.94500463125
 40
0.0008838875
 41
0.0008838875
 10
6.699999999999999
 20
1.94500463125
 40
0.001767775
 41
0.001767775
  0
LWPOLYLINE
  5
1560
330
A
100
AcDbEntity
  8
Bars
100
AcDbPolyline
 90
        2
 70
     0
 10
6.694738468749999
 20
1.934582881250001
 40
0.0007015375
 41
0.0007015375
 10
6.694738468749999
 20
1.93107519375
 40
0.001403075
 41
0.001403075
  0
LWPOLYLINE
  5
1561
330
A
100
AcDbEntity
  8
Bars
100
AcDbPolyline
 90
        2
 70
     0
 10
6.693335393749999
 20
1.934582881250001
 40
0.0007015375
 41
0.0007015375
 10
6.693335393749999
 20
1.93107519375
 40
0.001403075
 41
0.001403075
  0
LWPOLYLINE
  5
1562
330
A
100
AcDbEntity
  8
Bars
100
AcDbPolyline
 90
        2
 70
     0
 10
6.69193231875
 20
1.934582881250001
 40
0.0007015375
 41
0.0007015375
 10
6.69193231875
 20
1.93107519375
 40
0.001403075
 41
0.001403075
  0
LWPOLYLINE
  5
1563
330
A
100
AcDbEntity
  8
Bars
100
AcDbPolyline
 90
        2
 70
     0
 10
6.694094124999999
 20
1.93970130625
 40
0.00078745
 41
0.00078745
 10
6.694094124999999
 20
1.93576405625
 40
0.0015749
 41
0.0015749
  0
LWPOLYLINE
  5
1564
330
A
100
AcDbEntity
  8
Bars
100
AcDbPolyline
 90
        2
 70
     0
 10
6.692519224999999
 20
1.93970130625
 40
0.00078745
 41
0.00078745
 10
6.692519224999999
 20
1.93576405625
 40
0.0015749
 41
0.0015749
  0
LWPOLYLINE
  5
1565
330
A
100
AcDbEntity
  8
Bars
100
AcDbPolyline
 90
        2
 70
     0
 10
6.690944325
 20
1.93970130625
 40
0.00078745
 41
0.00078745
 10
6.690944325
 20
1.93576405625
 40
0.0015749
 41
0.0015749
  0
LWPOLYLINE
  5
1566
330
A
100
AcDbEntity
  8
Bars
100
AcDbPolyline
 90
        2
 70
     0
 10
6.693370843749999
 20
1.945446575000001
 40
0.0008838875
 41
0.0008838875
 10
6.693370843749999
 20
1.9410271375
 40
0.001767775
 41
0.001767775
  0
LWPOLYLINE
  5
1567
330
A
100
AcDbEntity
  8
Bars
100
AcDbPolyline
 90
        2
 70
     0
 10
6.69160306875
 20
1.945446575000001
 40
0.0008838875
 41
0.0008838875
 10
6.69160306875
 20
1.9410271375
 40
0.001767775
 41
0.001767775
  0
LWPOLYLINE
  5
1568
330
A
100
AcDbEntity
  8
Bars
100
AcDbPolyline
 90
        2
 70
     0
 10
6.68983529375
 20
1.945446575000001
 40
0.0008838875
 41
0.0008838875
 10
6.68983529375
 20
1.9410271375
 40
0.001767775
 41
0.001767775
  0
MTEXT
  5
1569
330
A
100
AcDbEntity
  8
Bars
100
AcDbMText
 10
6.701403075000001
 20
1.931075193750004
 30
0.0
 40
0.0035076875
 41
0.00265
 71
     7
 72
     5
  1
{\fArial Narrow|b0|i0|c0|p34;6}
  7
ROMANT
 73
     1
 44
1.0
1001
ACAD
1000
MTEXTBEGIN
1070
    73
1070
     1
1070
    44
1040
1.0
1070
    74
1070
     0
1000
MTEXTEND
  0
MTEXT
  5
156A
330
A
100
AcDbEntity
  8
Bars
100
AcDbMText
 10
6.7015749
 20
1.935764056250011
 30
0.0
 40
0.00393725
 41
0.002975
 71
     7
 72
     5
  1
{\fArial Narrow|b0|i0|c0|p34;5}
  7
ROMANT
 73
     1
 44
1.0
1001
ACAD
1000
MTEXTBEGIN
1070
    73
1070
     1
1070
    44
1040
1.0
1070
    74
1070
     0
1000
MTEXTEND
  0
MTEXT
  5
156B
330
A
100
AcDbEntity
  8
Bars
100
AcDbMText
 10
6.701767774999998
 20
1.941027137500022
 30
0.0
 40
0.0044194375
 41
0.00334
 71
     7
 72
     5
  1
{\fArial Narrow|b0|i0|c0|p34;4}
  7
ROMANT
 73
     1
 44
1.0
1001
ACAD
1000
MTEXTBEGIN
1070
    73
1070
     1
1070
    44
1040
1.0
1070
    74
1070
     0
1000
MTEXTEND
  0
LWPOLYLINE
  5
156C
330
A
100
AcDbEntity
  8
Bars
100
AcDbPolyline
 90
        2
 70
     0
 10
6.694431874999999
 20
1.954122637499999
 40
0.001113625
 41
0.001113625
 10
6.699999999999999
 20
1.954122637499999
 40
0.00222725
 41
0.00222725
  0
LWPOLYLINE
  5
156D
330
A
100
AcDbEntity
  8
Bars
100
AcDbPolyline
 90
        2
 70
     0
 10
6.694431874999999
 20
1.9563498875
 40
0.001113625
 41
0.001113625
 10
6.699999999999999
 20
1.9563498875
 40
0.00222725
 41
0.00222725
  0
LWPOLYLINE
  5
156E
330
A
100
AcDbEntity
  8
Bars
100
AcDbPolyline
 90
        2
 70
     0
 10
6.694431874999999
 20
1.9585771375
 40
0.001113625
 41
0.001113625
 10
6.699999999999999
 20
1.9585771375
 40
0.00222725
 41
0.00222725
  0
LWPOLYLINE
  5
156F
330
A
100
AcDbEntity
  8
Bars
100
AcDbPolyline
 90
        2
 70
     0
 10
6.695039375
 20
1.949415075
 40
0.000992125
 41
0.000992125
 10
6.699999999999999
 20
1.949415075
 40
0.00198425
 41
0.00198425
  0
LWPOLYLINE
  5
1570
330
A
100
AcDbEntity
  8
Bars
100
AcDbPolyline
 90
        2
 70
     0
 10
6.695039375
 20
1.951399325
 40
0.000992125
 41
0.000992125
 10
6.699999999999999
 20
1.951399325
 40
0.00198425
 41
0.00198425
  0
LWPOLYLINE
  5
1571
330
A
100
AcDbEntity
  8
Bars
100
AcDbPolyline
 90
        2
 70
     0
 10
6.693749999999999
 20
1.961633949999999
 40
0.00125
 41
0.00125
 10
6.699999999999999
 20
1.961633949999999
 40
0.0025
 41
0.0025
  0
LWPOLYLINE
  5
1572
330
A
100
AcDbEntity
  8
Bars
100
AcDbPolyline
 90
        2
 70
     0
 10
6.693749999999999
 20
1.96413395
 40
0.00125
 41
0.00125
 10
6.699999999999999
 20
1.96413395
 40
0.0025
 41
0.0025
  0
LWPOLYLINE
  5
1573
330
A
100
AcDbEntity
  8
Bars
100
AcDbPolyline
 90
        2
 70
     0
 10
6.693749999999999
 20
1.966633950000002
 40
0.00125
 41
0.00125
 10
6.699999999999999
 20
1.966633950000002
 40
0.0025
 41
0.0025
  0
LWPOLYLINE
  5
1574
330
A
100
AcDbEntity
  8
Bars
100
AcDbPolyline
 90
        2
 70
     0
 10
6.691647812499999
 20
1.959133950000001
 40
0.001113625
 41
0.001113625
 10
6.691647812499999
 20
1.953565825000001
 40
0.00222725
 41
0.00222725
  0
LWPOLYLINE
  5
1575
330
A
100
AcDbEntity
  8
Bars
100
AcDbPolyline
 90
        2
 70
     0
 10
6.6894205625
 20
1.959133950000001
 40
0.001113625
 41
0.001113625
 10
6.6894205625
 20
1.953565825000001
 40
0.00222725
 41
0.00222725
  0
LWPOLYLINE
  5
1576
330
A
100
AcDbEntity
  8
Bars
100
AcDbPolyline
 90
        2
 70
     0
 10
6.687193312499999
 20
1.959133950000001
 40
0.001113625
 41
0.001113625
 10
6.687193312499999
 20
1.953565825000001
 40
0.00222725
 41
0.00222725
  0
LWPOLYLINE
  5
1577
330
A
100
AcDbEntity
  8
Bars
100
AcDbPolyline
 90
        2
 70
     0
 10
6.690625
 20
1.967258950000001
 40
0.00125
 41
0.00125
 10
6.690625
 20
1.96100895
 40
0.0025
 41
0.0025
  0
LWPOLYLINE
  5
1578
330
A
100
AcDbEntity
  8
Bars
100
AcDbPolyline
 90
        2
 70
     0
 10
6.688124999999999
 20
1.967258950000001
 40
0.00125
 41
0.00125
 10
6.688124999999999
 20
1.96100895
 40
0.0025
 41
0.0025
  0
LWPOLYLINE
  5
1579
330
A
100
AcDbEntity
  8
Bars
100
AcDbPolyline
 90
        2
 70
     0
 10
6.685624999999999
 20
1.967258950000001
 40
0.00125
 41
0.00125
 10
6.685624999999999
 20
1.96100895
 40
0.0025
 41
0.0025
  0
MTEXT
  5
157A
330
A
100
AcDbEntity
  8
Bars
100
AcDbMText
 10
6.702227250000005
 20
1.95356582500004
 30
0.0
 40
0.005568125
 41
0.004205
 71
     7
 72
     5
  1
{\fArial Narrow|b0|i0|c0|p34;2}
  7
ROMANT
 73
     1
 44
1.0
1001
ACAD
1000
MTEXTBEGIN
1070
    73
1070
     1
1070
    44
1040
1.0
1070
    74
1070
     0
1000
MTEXTEND
  0
MTEXT
  5
157B
330
A
100
AcDbEntity
  8
Bars
100
AcDbMText
 10
6.653363500000004
 20
1.971713449999988
 30
0.0
 40
0.01113625
 41
0.010025
 71
     8
 72
     5
  1
{\fArial Narrow|b0|i0|c0|p34;0}
  7
ROMANT
 73
     1
 44
1.0
1001
ACAD
1000
MTEXTBEGIN
1070
    73
1070
     1
1070
    44
1040
1.0
1070
    74
1070
     0
1000
MTEXTEND
  0
MTEXT
  5
157C
330
A
100
AcDbEntity
  8
Bars
100
AcDbMText
 10
6.692500000000004
 20
1.971713449999988
 30
0.0
 40
0.01113625
 41
0.010022625
 71
     8
 72
     5
  1
{\fArial Narrow|b0|i0|c0|p34;1}
  7
ROMANT
 73
     1
 44
1.0
1001
ACAD
1000
MTEXTBEGIN
1070
    73
1070
     1
1070
    44
1040
1.0
1070
    74
1070
     0
1000
MTEXTEND
  0
MTEXT
  5
157D
330
A
100
AcDbEntity
  8
Bars
100
AcDbMText
 10
6.668886375000001
 20
1.943943825000022
 30
0.0
 40
0.0027840625
 41
0.00250625
 71
     9
 72
     5
  1
{\fArial Narrow|b0|i0|c0|p34;2}
  7
ROMANT
 73
     1
 44
1.0
1001
ACAD
1000
MTEXTBEGIN
1070
    73
1070
     1
1070
    44
1040
1.0
1070
    74
1070
     0
1000
MTEXTEND
  0
MTEXT
  5
157E
330
A
100
AcDbEntity
  8
Bars
100
AcDbMText
 10
6.685624999999999
 20
1.945165387500018
 30
0.0
 40
0.0015625
 41
0.00118
 71
     7
 72
     5
  1
{\fArial Narrow|b0|i0|c0|p34;1}
  7
ROMANT
 73
     1
 44
1.0
1001
ACAD
1000
MTEXTBEGIN
1070
    73
1070
     1
1070
    44
1040
1.0
1070
    74
1070
     0
1000
MTEXTEND
  0
MTEXT
  5
157F
330
A
100
AcDbEntity
  8
Bars
100
AcDbMText
 10
6.669212550000001
 20
1.935042940625027
 30
0.0
 40
0.001968625
 41
0.00177125
 71
     9
 72
     5
  1
{\fArial Narrow|b0|i0|c0|p34;5}
  7
ROMANT
 73
     1
 44
1.0
1001
ACAD
1000
MTEXTBEGIN
1070
    73
1070
     1
1070
    44
1040
1.0
1070
    74
1070
     0
1000
MTEXTEND
  0
MTEXT
  5
1580
330
A
100
AcDbEntity
  8
Bars
100
AcDbMText
 10
6.669116112499999
 20
1.937674481249995
 30
0.0
 40
0.00220971875
 41
0.00198875
 71
     9
 72
     5
  1
{\fArial Narrow|b0|i0|c0|p34;4}
  7
ROMANT
 73
     1
 44
1.0
1001
ACAD
1000
MTEXTBEGIN
1070
    73
1070
     1
1070
    44
1040
1.0
1070
    74
1070
     0
1000
MTEXTEND
  0
MTEXT
  5
1581
330
A
100
AcDbEntity
  8
Bars
100
AcDbMText
 10
6.669007875000001
 20
1.940628293750016
 30
0.0
 40
0.0024803125
 41
0.0022325
 71
     9
 72
     5
  1
{\fArial Narrow|b0|i0|c0|p34;3}
  7
ROMANT
 73
     1
 44
1.0
1001
ACAD
1000
MTEXTBEGIN
1070
    73
1070
     1
1070
    44
1040
1.0
1070
    74
1070
     0
1000
MTEXTEND
  0
LWPOLYLINE
  5
1582
330
A
100
AcDbEntity
  8
Bars
100
AcDbPolyline
 90
        2
 70
     0
 10
6.674527837499999
 20
1.937011565624999
 40
0.000393725
 41
0.000393725
 10
6.674527837499999
 20
1.935042940624999
 40
0.00078745
 41
0.00078745
  0
LWPOLYLINE
  5
1583
330
A
100
AcDbEntity
  8
Bars
100
AcDbPolyline
 90
        2
 70
     0
 10
6.672952937499999
 20
1.937011565624999
 40
0.000393725
 41
0.000393725
 10
6.672952937499999
 20
1.935042940624999
 40
0.00078745
 41
0.00078745
  0
LWPOLYLINE
  5
1584
330
A
100
AcDbEntity
  8
Bars
100
AcDbPolyline
 90
        2
 70
     0
 10
6.671968624999999
 20
1.936814703125001
 40
0.000393725
 41
0.000393725
 10
6.669999999999999
 20
1.936814703125001
 40
0.00078745
 41
0.00078745
  0
LWPOLYLINE
  5
1585
330
A
100
AcDbEntity
  8
Bars
100
AcDbPolyline
 90
        2
 70
     0
 10
6.6737403875
 20
1.937011565624999
 40
0.000393725
 41
0.000393725
 10
6.6737403875
 20
1.935042940624999
 40
0.00078745
 41
0.00078745
  0
LWPOLYLINE
  5
1586
330
A
100
AcDbEntity
  8
Bars
100
AcDbPolyline
 90
        2
 70
     0
 10
6.67175384375
 20
1.934276968750001
 40
0.00035076875
 41
0.00035076875
 10
6.669999999999999
 20
1.934276968750001
 40
0.0007015375
 41
0.0007015375
  0
LWPOLYLINE
  5
1587
330
A
100
AcDbEntity
  8
Bars
100
AcDbPolyline
 90
        2
 70
     0
 10
6.67175384375
 20
1.933575431250002
 40
0.00035076875
 41
0.00035076875
 10
6.669999999999999
 20
1.933575431250002
 40
0.0007015375
 41
0.0007015375
  0
LWPOLYLINE
  5
1588
330
A
100
AcDbEntity
  8
Bars
100
AcDbPolyline
 90
        2
 70
     0
 10
6.67175384375
 20
1.932873893749999
 40
0.00035076875
 41
0.00035076875
 10
6.669999999999999
 20
1.932873893749999
 40
0.0007015375
 41
0.0007015375
  0
LWPOLYLINE
  5
1589
330
A
100
AcDbEntity
  8
Bars
100
AcDbPolyline
 90
        2
 70
     0
 10
6.671968624999999
 20
1.936027253125001
 40
0.000393725
 41
0.000393725
 10
6.669999999999999
 20
1.936027253125001
 40
0.00078745
 41
0.00078745
  0
LWPOLYLINE
  5
158A
330
A
100
AcDbEntity
  8
Bars
100
AcDbPolyline
 90
        2
 70
     0
 10
6.671968624999999
 20
1.935239803125
 40
0.000393725
 41
0.000393725
 10
6.669999999999999
 20
1.935239803125
 40
0.00078745
 41
0.00078745
  0
MTEXT
  5
158B
330
A
100
AcDbEntity
  8
Bars
100
AcDbMText
 10
6.669298462500005
 20
1.932698509375004
 30
0.0
 40
0.00175384375
 41
0.00157875
 71
     9
 72
     5
  1
{\fArial Narrow|b0|i0|c0|p34;6}
  7
ROMANT
 73
     1
 44
1.0
1001
ACAD
1000
MTEXTBEGIN
1070
    73
1070
     1
1070
    44
1040
1.0
1070
    74
1070
     0
1000
MTEXTEND
  0
LWPOLYLINE
  5
158C
330
A
100
AcDbEntity
  8
Bars
100
AcDbPolyline
 90
        2
 70
     0
 10
6.674033840625
 20
1.934452353124999
 40
0.00035076875
 41
0.00035076875
 10
6.674033840625
 20
1.932698509375001
 40
0.0007015375
 41
0.0007015375
  0
LWPOLYLINE
  5
158D
330
A
100
AcDbEntity
  8
Bars
100
AcDbPolyline
 90
        2
 70
     0
 10
6.672630765624999
 20
1.934452353124999
 40
0.00035076875
 41
0.00035076875
 10
6.672630765624999
 20
1.932698509375001
 40
0.0007015375
 41
0.0007015375
  0
LWPOLYLINE
  5
158E
330
A
100
AcDbEntity
  8
Bars
100
AcDbPolyline
 90
        2
 70
     0
 10
6.673332303124999
 20
1.934452353124999
 40
0.00035076875
 41
0.00035076875
 10
6.673332303124999
 20
1.932698509375001
 40
0.0007015375
 41
0.0007015375
  0
LWPOLYLINE
  5
158F
330
A
100
AcDbEntity
  8
Bars
100
AcDbPolyline
 90
        2
 70
     0
 10
6.677812499999999
 20
1.935823509375001
 40
0.000625
 41
0.000625
 10
6.677812499999999
 20
1.932698509375001
 40
0.00125
 41
0.00125
  0
LWPOLYLINE
  5
1590
330
A
100
AcDbEntity
  8
Bars
100
AcDbPolyline
 90
        2
 70
     0
 10
6.680312499999999
 20
1.935823509375001
 40
0.000625
 41
0.000625
 10
6.680312499999999
 20
1.932698509375001
 40
0.00125
 41
0.00125
  0
LWPOLYLINE
  5
1591
330
A
100
AcDbEntity
  8
Bars
100
AcDbPolyline
 90
        2
 70
     0
 10
6.6790625
 20
1.935823509375001
 40
0.000625
 41
0.000625
 10
6.6790625
 20
1.932698509375001
 40
0.00125
 41
0.00125
  0
LWPOLYLINE
  5
1592
330
A
100
AcDbEntity
  8
Bars
100
AcDbPolyline
 90
        2
 70
     0
 10
6.674712593749999
 20
1.94310860625
 40
0.0004960625
 41
0.0004960625
 10
6.674712593749999
 20
1.940628293750002
 40
0.000992125
 41
0.000992125
  0
LWPOLYLINE
  5
1593
330
A
100
AcDbEntity
  8
Bars
100
AcDbPolyline
 90
        2
 70
     0
 10
6.67372046875
 20
1.94310860625
 40
0.0004960625
 41
0.0004960625
 10
6.67372046875
 20
1.940628293750002
 40
0.000992125
 41
0.000992125
  0
LWPOLYLINE
  5
1594
330
A
100
AcDbEntity
  8
Bars
100
AcDbPolyline
 90
        2
 70
     0
 10
6.672480312499999
 20
1.941868450000001
 40
0.0004960625
 41
0.0004960625
 10
6.669999999999999
 20
1.941868450000001
 40
0.000992125
 41
0.000992125
  0
LWPOLYLINE
  5
1595
330
A
100
AcDbEntity
  8
Bars
100
AcDbPolyline
 90
        2
 70
     0
 10
6.672480312499999
 20
1.940876325000001
 40
0.0004960625
 41
0.0004960625
 10
6.669999999999999
 20
1.940876325000001
 40
0.000992125
 41
0.000992125
  0
LWPOLYLINE
  5
1596
330
A
100
AcDbEntity
  8
Bars
100
AcDbPolyline
 90
        2
 70
     0
 10
6.67220971875
 20
1.939663228124999
 40
0.00044194375
 41
0.00044194375
 10
6.669999999999999
 20
1.939663228124999
 40
0.0008838875
 41
0.0008838875
  0
LWPOLYLINE
  5
1597
330
A
100
AcDbEntity
  8
Bars
100
AcDbPolyline
 90
        2
 70
     0
 10
6.67220971875
 20
1.938779340625
 40
0.00044194375
 41
0.00044194375
 10
6.669999999999999
 20
1.938779340625
 40
0.0008838875
 41
0.0008838875
  0
LWPOLYLINE
  5
1598
330
A
100
AcDbEntity
  8
Bars
100
AcDbPolyline
 90
        2
 70
     0
 10
6.67220971875
 20
1.937895453125001
 40
0.00044194375
 41
0.00044194375
 10
6.669999999999999
 20
1.937895453125001
 40
0.0008838875
 41
0.0008838875
  0
LWPOLYLINE
  5
1599
330
A
100
AcDbEntity
  8
Bars
100
AcDbPolyline
 90
        2
 70
     0
 10
6.673314578124999
 20
1.939884200000001
 40
0.00044194375
 41
0.00044194375
 10
6.673314578124999
 20
1.937674481249999
 40
0.0008838875
 41
0.0008838875
  0
LWPOLYLINE
  5
159A
330
A
100
AcDbEntity
  8
Bars
100
AcDbPolyline
 90
        2
 70
     0
 10
6.674198465625
 20
1.939884200000001
 40
0.00044194375
 41
0.00044194375
 10
6.674198465625
 20
1.937674481249999
 40
0.0008838875
 41
0.0008838875
  0
LWPOLYLINE
  5
159B
330
A
100
AcDbEntity
  8
Bars
100
AcDbPolyline
 90
        2
 70
     0
 10
6.672784062499999
 20
1.946449481249999
 40
0.0005568125
 41
0.0005568125
 10
6.669999999999999
 20
1.946449481249999
 40
0.001113625
 41
0.001113625
  0
LWPOLYLINE
  5
159C
330
A
100
AcDbEntity
  8
Bars
100
AcDbPolyline
 90
        2
 70
     0
 10
6.672784062499999
 20
1.94533585625
 40
0.0005568125
 41
0.0005568125
 10
6.669999999999999
 20
1.94533585625
 40
0.001113625
 41
0.001113625
  0
LWPOLYLINE
  5
159D
330
A
100
AcDbEntity
  8
Bars
100
AcDbPolyline
 90
        2
 70
     0
 10
6.672784062499999
 20
1.944222231250002
 40
0.0005568125
 41
0.0005568125
 10
6.669999999999999
 20
1.944222231250002
 40
0.001113625
 41
0.001113625
  0
LWPOLYLINE
  5
159E
330
A
100
AcDbEntity
  8
Bars
100
AcDbPolyline
 90
        2
 70
     0
 10
6.672480312499999
 20
1.942860575
 40
0.0004960625
 41
0.0004960625
 10
6.669999999999999
 20
1.942860575
 40
0.000992125
 41
0.000992125
  0
LWPOLYLINE
  5
159F
330
A
100
AcDbEntity
  8
Bars
100
AcDbPolyline
 90
        2
 70
     0
 10
6.674176093749998
 20
1.946727887499999
 40
0.0005568125
 41
0.0005568125
 10
6.674176093749998
 20
1.943943825000001
 40
0.001113625
 41
0.001113625
  0
LWPOLYLINE
  5
15A0
330
A
100
AcDbEntity
  8
Bars
100
AcDbPolyline
 90
        2
 70
     0
 10
6.675704718749999
 20
1.94310860625
 40
0.0004960625
 41
0.0004960625
 10
6.675704718749999
 20
1.940628293750002
 40
0.000992125
 41
0.000992125
  0
LWPOLYLINE
  5
15A1
330
A
100
AcDbEntity
  8
Bars
100
AcDbPolyline
 90
        2
 70
     0
 10
6.675082353124999
 20
1.939884200000001
 40
0.00044194375
 41
0.00044194375
 10
6.675082353124999
 20
1.937674481249999
 40
0.0008838875
 41
0.0008838875
  0
LWPOLYLINE
  5
15A2
330
A
100
AcDbEntity
  8
Bars
100
AcDbPolyline
 90
        4
 70
     1
 43
0.0
 10
6.6805794375
 20
1.946727887499999
 10
6.677795374999998
 20
1.946727887499999
 10
6.677795374999998
 20
1.943943825000001
 10
6.6805794375
 20
1.943943825000001
  0
LWPOLYLINE
  5
15A3
330
A
100
AcDbEntity
  8
Bars
100
AcDbPolyline
 90
        2
 70
     0
 43
0.0027840625
 10
6.679187406249999
 20
1.946727887499999
 10
6.679187406249999
 20
1.943943825000001
  0
LWPOLYLINE
  5
15A4
330
A
100
AcDbEntity
  8
Bars
100
AcDbPolyline
 90
        2
 70
     0
 10
6.676403343749999
 20
1.946727887499999
 40
0.0005568125
 41
0.0005568125
 10
6.676403343749999
 20
1.943943825000001
 40
0.001113625
 41
0.001113625
  0
LWPOLYLINE
  5
15A5
330
A
100
AcDbEntity
  8
Bars
100
AcDbPolyline
 90
        2
 70
     0
 10
6.675289718749999
 20
1.946727887499999
 40
0.0005568125
 41
0.0005568125
 10
6.675289718749999
 20
1.943943825000001
 40
0.001113625
 41
0.001113625
  0
MTEXT
  5
15A6
330
A
100
AcDbEntity
  8
Bars
100
AcDbMText
 10
6.686249999999999
 20
1.932698509375004
 30
0.0
 40
0.003125
 41
0.00236
 71
     7
 72
     5
  1
{\fArial Narrow|b0|i0|c0|p34;1}
  7
ROMANT
 73
     1
 44
1.0
1001
ACAD
1000
MTEXTBEGIN
1070
    73
1070
     1
1070
    44
1040
1.0
1070
    74
1070
     0
1000
MTEXTEND
  0
LWPOLYLINE
  5
15A7
330
A
100
AcDbEntity
  8
Bars
100
AcDbPolyline
 90
        2
 70
     0
 10
6.681874999999999
 20
1.933011009375
 40
0.000625
 41
0.000625
 10
6.684999999999998
 20
1.933011009375
 40
0.00125
 41
0.00125
  0
LWPOLYLINE
  5
15A8
330
A
100
AcDbEntity
  8
Bars
100
AcDbPolyline
 90
        2
 70
     0
 10
6.681874999999999
 20
1.934261009374999
 40
0.000625
 41
0.000625
 10
6.684999999999998
 20
1.934261009374999
 40
0.00125
 41
0.00125
  0
LWPOLYLINE
  5
15A9
330
A
100
AcDbEntity
  8
Bars
100
AcDbPolyline
 90
        2
 70
     0
 10
6.681874999999999
 20
1.935511009375002
 40
0.000625
 41
0.000625
 10
6.684999999999998
 20
1.935511009375002
 40
0.00125
 41
0.00125
  0
MTEXT
  5
15AA
330
A
100
AcDbEntity
  8
Bars
100
AcDbMText
 10
6.6854960625
 20
1.941646840625036
 30
0.0
 40
0.00124015625
 41
0.00093625
 71
     7
 72
     5
  1
{\fArial Narrow|b0|i0|c0|p34;3}
  7
ROMANT
 73
     1
 44
1.0
1001
ACAD
1000
MTEXTBEGIN
1070
    73
1070
     1
1070
    44
1040
1.0
1070
    74
1070
     0
1000
MTEXTEND
  0
LWPOLYLINE
  5
15AB
330
A
100
AcDbEntity
  8
Bars
100
AcDbPolyline
 90
        2
 70
     0
 10
6.683139765625
 20
1.942886996874999
 40
0.00024803125
 41
0.00024803125
 10
6.683139765625
 20
1.941646840625001
 40
0.0004960625
 41
0.0004960625
  0
LWPOLYLINE
  5
15AC
330
A
100
AcDbEntity
  8
Bars
100
AcDbPolyline
 90
        2
 70
     0
 10
6.682643703124998
 20
1.942886996874999
 40
0.00024803125
 41
0.00024803125
 10
6.682643703124998
 20
1.941646840625001
 40
0.0004960625
 41
0.0004960625
  0
LWPOLYLINE
  5
15AD
330
A
100
AcDbEntity
  8
Bars
100
AcDbPolyline
 90
        2
 70
     0
 10
6.682147640625
 20
1.942886996874999
 40
0.00024803125
 41
0.00024803125
 10
6.682147640625
 20
1.941646840625001
 40
0.0004960625
 41
0.0004960625
  0
LWPOLYLINE
  5
15AE
330
A
100
AcDbEntity
  8
Bars
100
AcDbPolyline
 90
        2
 70
     0
 10
6.683759843749999
 20
1.941770856250002
 40
0.00024803125
 41
0.00024803125
 10
6.684999999999998
 20
1.941770856250002
 40
0.0004960625
 41
0.0004960625
  0
LWPOLYLINE
  5
15AF
330
A
100
AcDbEntity
  8
Bars
100
AcDbPolyline
 90
        2
 70
     0
 10
6.684123078124999
 20
1.937769640624999
 40
0.000175384375
 41
0.000175384375
 10
6.684999999999998
 20
1.937769640624999
 40
0.00035076875
 41
0.00035076875
  0
LWPOLYLINE
  5
15B0
330
A
100
AcDbEntity
  8
Bars
100
AcDbPolyline
 90
        2
 70
     0
 10
6.684123078124999
 20
1.938120409374999
 40
0.000175384375
 41
0.000175384375
 10
6.684999999999998
 20
1.938120409374999
 40
0.00035076875
 41
0.00035076875
  0
LWPOLYLINE
  5
15B1
330
A
100
AcDbEntity
  8
Bars
100
AcDbPolyline
 90
        2
 70
     0
 10
6.684123078124999
 20
1.938471178125002
 40
0.000175384375
 41
0.000175384375
 10
6.684999999999998
 20
1.938471178125002
 40
0.00035076875
 41
0.00035076875
  0
LWPOLYLINE
  5
15B2
330
A
100
AcDbEntity
  8
Bars
100
AcDbPolyline
 90
        2
 70
     0
 10
6.6840156875
 20
1.9389525953125
 40
0.0001968625
 41
0.0001968625
 10
6.684999999999998
 20
1.9389525953125
 40
0.000393725
 41
0.000393725
  0
LWPOLYLINE
  5
15B3
330
A
100
AcDbEntity
  8
Bars
100
AcDbPolyline
 90
        2
 70
     0
 10
6.6840156875
 20
1.939346320312502
 40
0.0001968625
 41
0.0001968625
 10
6.684999999999998
 20
1.939346320312502
 40
0.000393725
 41
0.000393725
  0
LWPOLYLINE
  5
15B4
330
A
100
AcDbEntity
  8
Bars
100
AcDbPolyline
 90
        2
 70
     0
 10
6.6840156875
 20
1.9397400453125
 40
0.0001968625
 41
0.0001968625
 10
6.684999999999998
 20
1.9397400453125
 40
0.000393725
 41
0.000393725
  0
LWPOLYLINE
  5
15B5
330
A
100
AcDbEntity
  8
Bars
100
AcDbPolyline
 90
        2
 70
     0
 10
6.683895140624999
 20
1.9402804203125
 40
0.000220971875
 41
0.000220971875
 10
6.684999999999998
 20
1.9402804203125
 40
0.00044194375
 41
0.00044194375
  0
LWPOLYLINE
  5
15B6
330
A
100
AcDbEntity
  8
Bars
100
AcDbPolyline
 90
        2
 70
     0
 10
6.683895140624999
 20
1.940722364062501
 40
0.000220971875
 41
0.000220971875
 10
6.684999999999998
 20
1.940722364062501
 40
0.00044194375
 41
0.00044194375
  0
LWPOLYLINE
  5
15B7
330
A
100
AcDbEntity
  8
Bars
100
AcDbPolyline
 90
        2
 70
     0
 10
6.683895140624999
 20
1.941164307812499
 40
0.000220971875
 41
0.000220971875
 10
6.684999999999998
 20
1.941164307812499
 40
0.00044194375
 41
0.00044194375
  0
LWPOLYLINE
  5
15B8
330
A
100
AcDbEntity
  8
Bars
100
AcDbPolyline
 90
        2
 70
     0
 10
6.683684617187498
 20
1.938558870312501
 40
0.000175384375
 41
0.000175384375
 10
6.683684617187498
 20
1.9376819484375
 40
0.00035076875
 41
0.00035076875
  0
LWPOLYLINE
  5
15B9
330
A
100
AcDbEntity
  8
Bars
100
AcDbPolyline
 90
        2
 70
     0
 10
6.683333848437499
 20
1.938558870312501
 40
0.000175384375
 41
0.000175384375
 10
6.683333848437499
 20
1.9376819484375
 40
0.00035076875
 41
0.00035076875
  0
LWPOLYLINE
  5
15BA
330
A
100
AcDbEntity
  8
Bars
100
AcDbPolyline
 90
        2
 70
     0
 10
6.682983079687499
 20
1.938558870312501
 40
0.000175384375
 41
0.000175384375
 10
6.682983079687499
 20
1.9376819484375
 40
0.00035076875
 41
0.00035076875
  0
LWPOLYLINE
  5
15BB
330
A
100
AcDbEntity
  8
Bars
100
AcDbPolyline
 90
        2
 70
     0
 10
6.683523531249999
 20
1.939838476562499
 40
0.0001968625
 41
0.0001968625
 10
6.683523531249999
 20
1.938854164062501
 40
0.000393725
 41
0.000393725
  0
LWPOLYLINE
  5
15BC
330
A
100
AcDbEntity
  8
Bars
100
AcDbPolyline
 90
        2
 70
     0
 10
6.683129806249999
 20
1.939838476562499
 40
0.0001968625
 41
0.0001968625
 10
6.683129806249999
 20
1.938854164062501
 40
0.000393725
 41
0.000393725
  0
LWPOLYLINE
  5
15BD
330
A
100
AcDbEntity
  8
Bars
100
AcDbPolyline
 90
        2
 70
     0
 10
6.682736081249998
 20
1.939838476562499
 40
0.0001968625
 41
0.0001968625
 10
6.682736081249998
 20
1.938854164062501
 40
0.000393725
 41
0.000393725
  0
LWPOLYLINE
  5
15BE
330
A
100
AcDbEntity
  8
Bars
100
AcDbPolyline
 90
        2
 70
     0
 10
6.683342710937498
 20
1.94127479375
 40
0.000220971875
 41
0.000220971875
 10
6.683342710937498
 20
1.940169934374999
 40
0.00044194375
 41
0.00044194375
  0
LWPOLYLINE
  5
15BF
330
A
100
AcDbEntity
  8
Bars
100
AcDbPolyline
 90
        2
 70
     0
 10
6.682900767187499
 20
1.94127479375
 40
0.000220971875
 41
0.000220971875
 10
6.682900767187499
 20
1.940169934374999
 40
0.00044194375
 41
0.00044194375
  0
LWPOLYLINE
  5
15C0
330
A
100
AcDbEntity
  8
Bars
100
AcDbPolyline
 90
        2
 70
     0
 10
6.682458823437499
 20
1.94127479375
 40
0.000220971875
 41
0.000220971875
 10
6.682458823437499
 20
1.940169934374999
 40
0.00044194375
 41
0.00044194375
  0
MTEXT
  5
15C1
330
A
100
AcDbEntity
  8
Bars
100
AcDbMText
 10
6.685350768749998
 20
1.937681948437532
 30
0.0
 40
0.000876921875
 41
0.0006625
 71
     7
 72
     5
  1
{\fArial Narrow|b0|i0|c0|p34;6}
  7
ROMANT
 73
     1
 44
1.0
1001
ACAD
1000
MTEXTBEGIN
1070
    73
1070
     1
1070
    44
1040
1.0
1070
    74
1070
     0
1000
MTEXTEND
  0
MTEXT
  5
15C2
330
A
100
AcDbEntity
  8
Bars
100
AcDbMText
 10
6.685393725000002
 20
1.93885416406254
 30
0.0
 40
0.0009843125
 41
0.00074375
 71
     7
 72
     5
  1
{\fArial Narrow|b0|i0|c0|p34;5}
  7
ROMANT
 73
     1
 44
1.0
1001
ACAD
1000
MTEXTBEGIN
1070
    73
1070
     1
1070
    44
1040
1.0
1070
    74
1070
     0
1000
MTEXTEND
  0
MTEXT
  5
15C3
330
A
100
AcDbEntity
  8
Bars
100
AcDbMText
 10
6.685441943750001
 20
1.940169934375045
 30
0.0
 40
0.001104859375
 41
0.000835
 71
     7
 72
     5
  1
{\fArial Narrow|b0|i0|c0|p34;4}
  7
ROMANT
 73
     1
 44
1.0
1001
ACAD
1000
MTEXTBEGIN
1070
    73
1070
     1
1070
    44
1040
1.0
1070
    74
1070
     0
1000
MTEXTEND
  0
LWPOLYLINE
  5
15C4
330
A
100
AcDbEntity
  8
Bars
100
AcDbPolyline
 90
        2
 70
     0
 10
6.683607968749999
 20
1.943443809375001
 40
0.00027840625
 41
0.00027840625
 10
6.684999999999998
 20
1.943443809375001
 40
0.0005568125
 41
0.0005568125
  0
LWPOLYLINE
  5
15C5
330
A
100
AcDbEntity
  8
Bars
100
AcDbPolyline
 90
        2
 70
     0
 10
6.683607968749999
 20
1.944000621875002
 40
0.00027840625
 41
0.00027840625
 10
6.684999999999998
 20
1.944000621875002
 40
0.0005568125
 41
0.0005568125
  0
LWPOLYLINE
  5
15C6
330
A
100
AcDbEntity
  8
Bars
100
AcDbPolyline
 90
        2
 70
     0
 10
6.683607968749999
 20
1.944557434374999
 40
0.00027840625
 41
0.00027840625
 10
6.684999999999998
 20
1.944557434374999
 40
0.0005568125
 41
0.0005568125
  0
LWPOLYLINE
  5
15C7
330
A
100
AcDbEntity
  8
Bars
100
AcDbPolyline
 90
        2
 70
     0
 10
6.683759843749999
 20
1.94226691875
 40
0.00024803125
 41
0.00024803125
 10
6.684999999999998
 20
1.94226691875
 40
0.0004960625
 41
0.0004960625
  0
LWPOLYLINE
  5
15C8
330
A
100
AcDbEntity
  8
Bars
100
AcDbPolyline
 90
        2
 70
     0
 10
6.683759843749999
 20
1.942762981250002
 40
0.00024803125
 41
0.00024803125
 10
6.684999999999998
 20
1.942762981250002
 40
0.0004960625
 41
0.0004960625
  0
LWPOLYLINE
  5
15C9
330
A
100
AcDbEntity
  8
Bars
100
AcDbPolyline
 90
        2
 70
     0
 10
6.6834375
 20
1.945321637500001
 40
0.0003125
 41
0.0003125
 10
6.684999999999998
 20
1.945321637500001
 40
0.000625
 41
0.000625
  0
LWPOLYLINE
  5
15CA
330
A
100
AcDbEntity
  8
Bars
100
AcDbPolyline
 90
        2
 70
     0
 10
6.6834375
 20
1.9459466375
 40
0.0003125
 41
0.0003125
 10
6.684999999999998
 20
1.9459466375
 40
0.000625
 41
0.000625
  0
LWPOLYLINE
  5
15CB
330
A
100
AcDbEntity
  8
Bars
100
AcDbPolyline
 90
        2
 70
     0
 10
6.6834375
 20
1.946571637499999
 40
0.0003125
 41
0.0003125
 10
6.684999999999998
 20
1.946571637499999
 40
0.000625
 41
0.000625
  0
LWPOLYLINE
  5
15CC
330
A
100
AcDbEntity
  8
Bars
100
AcDbPolyline
 90
        2
 70
     0
 10
6.682911953125
 20
1.944696637500001
 40
0.00027840625
 41
0.00027840625
 10
6.682911953125
 20
1.943304606250002
 40
0.0005568125
 41
0.0005568125
  0
LWPOLYLINE
  5
15CD
330
A
100
AcDbEntity
  8
Bars
100
AcDbPolyline
 90
        2
 70
     0
 10
6.682355140624999
 20
1.944696637500001
 40
0.00027840625
 41
0.00027840625
 10
6.682355140624999
 20
1.943304606250002
 40
0.0005568125
 41
0.0005568125
  0
LWPOLYLINE
  5
15CE
330
A
100
AcDbEntity
  8
Bars
100
AcDbPolyline
 90
        2
 70
     0
 10
6.681798328124999
 20
1.944696637500001
 40
0.00027840625
 41
0.00027840625
 10
6.681798328124999
 20
1.943304606250002
 40
0.0005568125
 41
0.0005568125
  0
LWPOLYLINE
  5
15CF
330
A
100
AcDbEntity
  8
Bars
100
AcDbPolyline
 90
        2
 70
     0
 10
6.682656249999999
 20
1.946727887499999
 40
0.0003125
 41
0.0003125
 10
6.682656249999999
 20
1.945165387500001
 40
0.000625
 41
0.000625
  0
LWPOLYLINE
  5
15D0
330
A
100
AcDbEntity
  8
Bars
100
AcDbPolyline
 90
        2
 70
     0
 10
6.682031249999999
 20
1.946727887499999
 40
0.0003125
 41
0.0003125
 10
6.682031249999999
 20
1.945165387500001
 40
0.000625
 41
0.000625
  0
LWPOLYLINE
  5
15D1
330
A
100
AcDbEntity
  8
Bars
100
AcDbPolyline
 90
        2
 70
     0
 10
6.68140625
 20
1.946727887499999
 40
0.0003125
 41
0.0003125
 10
6.68140625
 20
1.945165387500001
 40
0.000625
 41
0.000625
  0
MTEXT
  5
15D2
330
A
100
AcDbEntity
  8
Bars
100
AcDbMText
 10
6.685556812500003
 20
1.943304606250023
 30
0.0
 40
0.00139203125
 41
0.00105125
 71
     7
 72
     5
  1
{\fArial Narrow|b0|i0|c0|p34;2}
  7
ROMANT
 73
     1
 44
1.0
1001
ACAD
1000
MTEXTBEGIN
1070
    73
1070
     1
1070
    44
1040
1.0
1070
    74
1070
     0
1000
MTEXTEND
  0
MTEXT
  5
15D3
330
A
100
AcDbEntity
  8
Bars
100
AcDbMText
 10
6.673340875000002
 20
1.947841512500019
 30
0.0
 40
0.0027840625
 41
0.002505
 71
     8
 72
     5
  1
{\fArial Narrow|b0|i0|c0|p34;2}
  7
ROMANT
 73
     1
 44
1.0
1001
ACAD
1000
MTEXTBEGIN
1070
    73
1070
     1
1070
    44
1040
1.0
1070
    74
1070
     0
1000
MTEXTEND
  0
MTEXT
  5
15D4
330
A
100
AcDbEntity
  8
Bars
100
AcDbMText
 10
6.683125000000003
 20
1.947841512500019
 30
0.0
 40
0.0027840625
 41
0.002505
 71
     8
 72
     5
  1
{\fArial Narrow|b0|i0|c0|p34;3}
  7
ROMANT
 73
     1
 44
1.0
1001
ACAD
1000
MTEXTBEGIN
1070
    73
1070
     1
1070
    44
1040
1.0
1070
    74
1070
     0
1000
MTEXTEND
  0
MTEXT
  5
15D5
330
A
100
AcDbEntity
  8
Bars
100
AcDbMText
 10
6.514711451736074
 20
1.768599925696545
 30
0.0
 40
0.0175
 41
0.25213
 71
     1
 72
     5
  1
{\fArial Narrow|b0|i0|c0|p34;Bertho Boman: 16-July-2000}
  7
ROMANT
 73
     1
 44
1.0
1001
ACAD
1000
MTEXTBEGIN
1070
    73
1070
     1
1070
    44
1040
1.0
1070
    74
1070
     0
1000
MTEXTEND
  0
TEXT
  5
15D9
330
A
100
AcDbEntity
  8
0
  6
Continuous
100
AcDbText
 10
1.5
 20
2.7
 30
0.0
 40
0.1
  1
Distance: Targets to Targets= 2 and 7 inches
100
AcDbText
  0
TEXT
  5
15DA
330
A
100
AcDbEntity
  8
0
  6
Continuous
100
AcDbText
 10
1.5
 20
1.6
 30
0.0
 40
0.1
  1
Width in 1/1000 inch
100
AcDbText
  0
TEXT
  5
15DB
330
A
100
AcDbEntity
  8
0
  6
Continuous
100
AcDbText
 10
6.5
 20
1.3
 30
0.0
 40
0.08
  1
40 x 200
100
AcDbText
  0
LWPOLYLINE
  5
160F
330
A
100
AcDbEntity
  8
0
  6
Continuous
100
AcDbPolyline
 90
        4
 70
   128
 43
0.01
 10
6.6
 20
0.4000000000000006
 42
0.9999999999999998
 10
6.6
 20
0.4000000000000006
 42
1.0
 10
6.6
 20
1.199999999999999
 42
1.0
 10
6.6
 20
0.4000000000000006
  0
ENDSEC
  0
SECTION
  2
OBJECTS
  0
DICTIONARY
  5
19
330
0
100
AcDbDictionary
281
     1
  3
ACAD_COLOR
350
CB9
  3
ACAD_GROUP
350
1A
  3
ACAD_LAYOUT
350
CBC
  3
ACAD_MATERIAL
350
CB8
  3
ACAD_MLINESTYLE
350
1B
  3
ACAD_PLOTSETTINGS
350
CBD
  3
ACAD_PLOTSTYLENAME
350
CB6
  3
ACAD_TABLESTYLE
350
CBA
  3
ACDBHEADERROUNDTRIPXREC
350
1799
  3
AcDbVariableDictionary
350
D54
  3
ASE_INDEX_DICTIONARY
350
1794
  0
DICTIONARY
  5
CC1
330
2
100
AcDbDictionary
280
     1
281
     1
  3
ACAD_LAYERFILTERS
360
D57
  3
ACLYDICTIONARY
360
D56
  0
DICTIONARY
  5
CF3
330
A
100
AcDbDictionary
280
     1
281
     1
  3
ACAD_SORTENTS
360
CF4
  0
DICTIONARY
  5
CB9
102
{ACAD_REACTORS
330
19
102
}
330
19
100
AcDbDictionary
281
     1
  0
DICTIONARY
  5
1A
102
{ACAD_REACTORS
330
19
102
}
330
19
100
AcDbDictionary
281
     1
  0
DICTIONARY
  5
CBC
102
{ACAD_REACTORS
330
19
102
}
330
19
100
AcDbDictionary
281
     1
  3
Layout1
350
CBF
  3
Model
350
CBE
  0
DICTIONARY
  5
CB8
102
{ACAD_REACTORS
330
19
102
}
330
19
100
AcDbDictionary
281
     1
  0
DICTIONARY
  5
1B
102
{ACAD_REACTORS
330
19
102
}
330
19
100
AcDbDictionary
281
     1
  3
STANDARD
350
1C
  0
DICTIONARY
  5
CBD
102
{ACAD_REACTORS
330
19
102
}
330
19
100
AcDbDictionary
281
     1
  0
ACDBDICTIONARYWDFLT
  5
CB6
102
{ACAD_REACTORS
330
19
102
}
330
19
100
AcDbDictionary
281
     1
  3
Normal
350
CB7
100
AcDbDictionaryWithDefault
340
CB7
  0
DICTIONARY
  5
CBA
102
{ACAD_REACTORS
330
19
102
}
330
19
100
AcDbDictionary
281
     1
  3
Standard
350
CBB
  0
DICTIONARY
  5
1799
102
{ACAD_REACTORS
330
19
102
}
330
19
100
AcDbDictionary
281
     1
  0
DICTIONARY
  5
D54
102
{ACAD_REACTORS
330
19
102
}
330
19
100
AcDbDictionary
281
     1
  3
CTABLESTYLE
350
D55
  3
DIMASSOC
350
1796
  3
PROJECTNAME
350
1797
  0
DICTIONARY
  5
1794
102
{ACAD_REACTORS
330
19
102
}
330
19
100
AcDbDictionary
281
     1
  3
ASEBlockHierarchyIndexRecord
350
1795
1001
DCO15
1040
1731880447.165
  0
DICTIONARY
  5
D57
102
{ACAD_REACTORS
330
CC1
102
}
330
CC1
100
AcDbDictionary
281
     1
  0
DICTIONARY
  5
D56
102
{ACAD_REACTORS
330
CC1
102
}
330
CC1
100
AcDbDictionary
281
     1
1001
ACAD
1000
<All
  0
SORTENTSTABLE
  5
CF4
102
{ACAD_REACTORS
330
CF3
102
}
330
CF3
100
AcDbSortentsTable
330
A
331
9C5
  5
A6D
331
863
  5
917
331
59F
  5
653
331
68B
  5
73F
331
777
  5
82B
331
94F
  5
9C7
331
CDC
  5
7B
331
D1B
  5
D48
331
77F
  5
833
331
86B
  5
91F
331
957
  5
9C9
331
CE4
  5
9B
331
D23
  5
CF6
331
95F
  5
9D1
331
CEC
  5
BB
331
D2B
  5
CFE
331
F3
  5
1A7
331
FB
  5
1AF
331
1E7
  5
29B
331
2D3
  5
387
331
2DB
  5
38F
331
103
  5
1B7
331
1EF
  5
2A3
331
3C7
  5
47B
331
4B3
  5
567
331
4BB
  5
56F
331
1F7
  5
2AB
331
10B
  5
1BF
331
2E3
  5
397
331
3CF
  5
483
331
5A7
  5
65B
331
693
  5
747
331
69B
  5
74F
331
4C3
  5
577
331
1FF
  5
2B3
331
2EB
  5
39F
331
3D7
  5
48B
331
5AF
  5
663
331
787
  5
83B
331
873
  5
927
331
D33
  5
D06
331
87B
  5
92F
331
6A3
  5
757
331
3DF
  5
493
331
4CB
  5
57F
331
5B7
  5
66B
331
78F
  5
843
331
967
  5
9D9
331
CFC
  5
D29
331
D3B
  5
D0E
331
883
  5
937
331
5BF
  5
673
331
6AB
  5
75F
331
797
  5
84B
331
96F
  5
9E1
331
D04
  5
D31
331
D0C
  5
D39
331
9B6
  5
A31
331
79F
  5
853
331
88B
  5
93F
331
977
  5
9E9
331
CCD
  5
3F
331
D43
  5
D16
331
D4B
  5
D1E
331
CD5
  5
5F
331
9BE
  5
A51
331
97F
  5
9F1
331
D14
  5
D41
331
27
  5
DB
331
113
  5
1C7
331
2F
  5
E3
331
207
  5
2BB
331
37
  5
EB
331
11B
  5
1CF
331
2F3
  5
3A7
331
3E7
  5
49B
331
2FB
  5
3AF
331
3F
  5
F3
331
123
  5
1D7
331
20F
  5
2C3
331
4D3
  5
587
331
4DB
  5
58F
331
12B
  5
1DF
331
217
  5
2CB
331
303
  5
3B7
331
3EF
  5
4A3
331
5C7
  5
67B
331
6B3
  5
767
331
7A7
  5
85B
331
6BB
  5
76F
331
3F7
  5
4AB
331
21F
  5
2D3
331
30B
  5
3BF
331
4E3
  5
597
331
5CF
  5
683
331
893
  5
947
331
CDD
  5
7F
331
987
  5
9F9
331
89B
  5
94F
331
5D7
  5
68B
331
3FF
  5
4B3
331
4EB
  5
59F
331
6C3
  5
777
331
7AF
  5
863
331
9C6
  5
A71
331
D1C
  5
D49
331
CE5
  5
9F
331
7B7
  5
86B
331
5DF
  5
693
331
6CB
  5
77F
331
8A3
  5
957
331
98F
  5
A01
331
D24
  5
CF7
331
CED
  5
BF
331
7BF
  5
873
331
8AB
  5
95F
331
D2C
  5
CFF
331
CF5
  5
D22
331
47
  5
FB
331
4F
  5
103
331
133
  5
1E7
331
313
  5
3C7
331
57
  5
10B
331
13B
  5
1EF
331
227
  5
2DB
331
31B
  5
3CF
331
5F
  5
113
331
143
  5
1F7
331
22F
  5
2E3
331
407
  5
4BB
331
4F3
  5
5A7
331
6D3
  5
787
331
4FB
  5
5AF
331
237
  5
2EB
331
14B
  5
1FF
331
323
  5
3D7
331
40F
  5
4C3
331
5E7
  5
69B
331
6DB
  5
78F
331
417
  5
4CB
331
23F
  5
2F3
331
32B
  5
3DF
331
503
  5
5B7
331
5EF
  5
6A3
331
7C7
  5
87B
331
8B3
  5
967
331
D34
  5
D07
331
CFD
  5
D2A
331
8BB
  5
96F
331
5F7
  5
6AB
331
41F
  5
4D3
331
50B
  5
5BF
331
6E3
  5
797
331
7CF
  5
883
331
9A7
  5
A19
331
D3C
  5
D0F
331
CC6
  5
23
331
8C3
  5
977
331
5FF
  5
6B3
331
6EB
  5
79F
331
7D7
  5
88B
331
9AF
  5
A21
331
D05
  5
D32
331
D44
  5
D17
331
CCE
  5
43
331
7DF
  5
893
331
8CB
  5
97F
331
9B7
  5
A35
331
D0D
  5
D3A
331
D4C
  5
D1F
331
CD6
  5
63
331
9BF
  5
A55
331
D15
  5
D42
331
67
  5
11B
331
6F
  5
123
331
153
  5
207
331
333
  5
3E7
331
77
  5
12B
331
15B
  5
20F
331
247
  5
2FB
331
33B
  5
3EF
331
163
  5
217
331
24F
  5
303
331
427
  5
4DB
331
513
  5
5C7
331
51B
  5
5CF
331
257
  5
30B
331
343
  5
3F7
331
42F
  5
4E3
331
607
  5
6BB
331
6F3
  5
7A7
331
6FB
  5
7AF
331
523
  5
5D7
331
437
  5
4EB
331
60F
  5
6C3
331
7E7
  5
89B
331
8D3
  5
987
331
CDE
  5
83
331
8DB
  5
98F
331
617
  5
6CB
331
703
  5
7B7
331
7EF
  5
8A3
331
9C7
  5
A75
331
D1D
  5
D4A
331
CE6
  5
A3
331
8E3
  5
997
331
7F7
  5
8AB
331
D25
  5
CF8
331
CEE
  5
C3
331
CF6
  5
D23
331
7F
  5
133
331
16B
  5
21F
331
173
  5
227
331
87
  5
13B
331
25F
  5
313
331
34B
  5
3FF
331
43F
  5
4F3
331
17B
  5
22F
331
8F
  5
143
331
267
  5
31B
331
353
  5
407
331
52B
  5
5DF
331
61F
  5
6D3
331
35B
  5
40F
331
97
  5
14B
331
183
  5
237
331
26F
  5
323
331
447
  5
4FB
331
533
  5
5E7
331
70B
  5
7BF
331
7FF
  5
8B3
331
53B
  5
5EF
331
277
  5
32B
331
363
  5
417
331
44F
  5
503
331
627
  5
6DB
331
713
  5
7C7
331
8EB
  5
99F
331
D35
  5
D08
331
CFE
  5
D2B
331
71B
  5
7CF
331
543
  5
5F7
331
457
  5
50B
331
62F
  5
6E3
331
807
  5
8BB
331
8F3
  5
9A7
331
D3D
  5
D10
331
CC7
  5
27
331
8FB
  5
9AF
331
723
  5
7D7
331
637
  5
6EB
331
80F
  5
8C3
331
D06
  5
D33
331
D45
  5
D18
331
CCF
  5
47
331
9B8
  5
A39
331
903
  5
9B4
331
817
  5
8CB
331
D0E
  5
D3B
331
CD7
  5
67
331
D16
  5
D43
331
9F
  5
153
331
18B
  5
23F
331
193
  5
247
331
A7
  5
15B
331
27F
  5
333
331
36B
  5
41F
331
45F
  5
513
331
AF
  5
163
331
19B
  5
24F
331
287
  5
33B
331
373
  5
427
331
54B
  5
5FF
331
553
  5
607
331
37B
  5
42F
331
B7
  5
16B
331
1A3
  5
257
331
28F
  5
343
331
467
  5
51B
331
63F
  5
6F3
331
72B
  5
7DF
331
9C0
  5
A59
331
81F
  5
8D3
331
55B
  5
60F
331
297
  5
34B
331
383
  5
437
331
46F
  5
523
331
647
  5
6FB
331
733
  5
7E7
331
90B
  5
9B6
331
CDF
  5
87
331
73B
  5
7EF
331
477
  5
52B
331
563
  5
617
331
64F
  5
703
331
827
  5
8DB
331
913
  5
9B8
331
9C8
  5
A79
331
D1E
  5
D4B
331
CE7
  5
A7
331
657
  5
70B
331
743
  5
7F7
331
82F
  5
8E3
331
91B
  5
9BA
331
D26
  5
CF9
331
D2E
  5
D01
331
CEF
  5
C7
331
837
  5
8EB
331
923
  5
9BC
331
CF7
  5
D24
331
BF
  5
173
331
1AB
  5
25F
331
1B3
  5
267
331
C7
  5
17B
331
29F
  5
353
331
38B
  5
43F
331
47F
  5
533
331
CF
  5
183
331
1BB
  5
26F
331
2A7
  5
35B
331
393
  5
447
331
56B
  5
61F
331
65F
  5
713
331
39B
  5
44F
331
D7
  5
18B
331
1C3
  5
277
331
2AF
  5
363
331
487
  5
53B
331
573
  5
627
331
74B
  5
7FF
331
83F
  5
8F3
331
57B
  5
62F
331
2B7
  5
36B
331
3A3
  5
457
331
48F
  5
543
331
667
  5
71B
331
753
  5
807
331
92B
  5
9BE
331
D36
  5
D09
331
CFF
  5
D2C
331
75B
  5
80F
331
497
  5
54B
331
583
  5
637
331
66F
  5
723
331
847
  5
8FB
331
933
  5
9C0
331
D3E
  5
D11
331
CC8
  5
2B
331
677
  5
72B
331
763
  5
817
331
84F
  5
903
331
93B
  5
9C2
331
D07
  5
D34
331
D46
  5
D19
331
CD0
  5
4B
331
943
  5
9C4
331
857
  5
90B
331
9B9
  5
A3D
331
D0F
  5
D3C
331
D4E
  5
D21
331
D17
  5
D44
331
DF
  5
193
331
1CB
  5
27F
331
2BF
  5
373
331
E7
  5
19B
331
1D3
  5
287
331
3AB
  5
45F
331
49F
  5
553
331
EF
  5
1A3
331
1DB
  5
28F
331
2C7
  5
37B
331
3B3
  5
467
331
58B
  5
63F
331
67F
  5
733
331
3BB
  5
46F
331
2CF
  5
383
331
4A7
  5
55B
331
593
  5
647
331
76B
  5
81F
331
85F
  5
913
331
59B
  5
64F
331
4AF
  5
563
331
687
  5
73B
331
773
  5
827
331
94B
  5
9C6
331
9C1
  5
A5D
331
CD8
  5
6B
331
77B
  5
82F
331
68F
  5
743
331
867
  5
91B
331
953
  5
9C8
331
CE0
  5
8B
331
D1F
  5
D4C
331
D27
  5
CFA
331
86F
  5
923
331
95B
  5
9CD
331
CE8
  5
AB
331
CF0
  5
CB
331
D2F
  5
D02
331
F7
  5
1AB
331
1E3
  5
297
331
2D7
  5
38B
331
FF
  5
1B3
331
1EB
  5
29F
331
3C3
  5
477
331
5A3
  5
657
331
2DF
  5
393
331
107
  5
1BB
331
1F3
  5
2A7
331
3CB
  5
47F
331
4B7
  5
56B
331
697
  5
74B
331
4BF
  5
573
331
1FB
  5
2AF
331
10F
  5
1C3
331
2E7
  5
39B
331
3D3
  5
487
331
5AB
  5
65F
331
783
  5
837
331
69F
  5
753
331
3DB
  5
48F
331
2EF
  5
3A3
331
4C7
  5
57B
331
5B3
  5
667
331
78B
  5
83F
331
877
  5
92B
331
963
  5
9D5
331
CF8
  5
D25
331
D37
  5
D0A
331
87F
  5
933
331
5BB
  5
66F
331
4CF
  5
583
331
6A7
  5
75B
331
793
  5
847
331
96B
  5
9DD
331
D00
  5
D2D
331
D3F
  5
D12
331
887
  5
93B
331
6AF
  5
763
331
79B
  5
84F
331
973
  5
9E5
331
CC9
  5
2F
331
D08
  5
D35
331
D47
  5
D1A
331
9BA
  5
A41
331
88F
  5
943
331
97B
  5
9ED
331
CD1
  5
4F
331
D10
  5
D3D
331
23
  5
D7
331
2B
  5
DF
331
117
  5
1CB
331
33
  5
E7
331
203
  5
2B7
331
2F7
  5
3AB
331
3B
  5
EF
331
11F
  5
1D3
331
20B
  5
2BF
331
3E3
  5
497
331
5C3
  5
677
331
213
  5
2C7
331
127
  5
1DB
331
2FF
  5
3B3
331
3EB
  5
49F
331
4D7
  5
58B
331
7A3
  5
857
331
4DF
  5
593
331
12F
  5
1E3
331
21B
  5
2CF
331
307
  5
3BB
331
3F3
  5
4A7
331
5CB
  5
67F
331
6B7
  5
76B
331
9C2
  5
A61
331
5D3
  5
687
331
3FB
  5
4AF
331
30F
  5
3C3
331
4E7
  5
59B
331
6BF
  5
773
331
7AB
  5
85F
331
897
  5
94B
331
983
  5
9F5
331
CD9
  5
6F
331
D18
  5
D45
331
89F
  5
953
331
5DB
  5
68F
331
4EF
  5
5A3
331
6C7
  5
77B
331
7B3
  5
867
331
CE1
  5
8F
331
D20
  5
D4D
331
D28
  5
CFB
331
7BB
  5
86F
331
6CF
  5
783
331
8A7
  5
95B
331
993
  5
A05
331
CE9
  5
AF
331
8AF
  5
963
331
99B
  5
A0D
331
CF1
  5
CF
331
43
  5
F7
331
4B
  5
FF
331
53
  5
107
331
137
  5
1EB
331
223
  5
2D7
331
317
  5
3CB
331
5B
  5
10F
331
13F
  5
1F3
331
22B
  5
2DF
331
403
  5
4B7
331
4F7
  5
5AB
331
233
  5
2E7
331
147
  5
1FB
331
31F
  5
3D3
331
40B
  5
4BF
331
5E3
  5
697
331
6D7
  5
78B
331
4FF
  5
5B3
331
14F
  5
203
331
23B
  5
2EF
331
327
  5
3DB
331
413
  5
4C7
331
5EB
  5
69F
331
7C3
  5
877
331
D30
  5
D03
331
8B7
  5
96B
331
6DF
  5
793
331
41B
  5
4CF
331
32F
  5
3E3
331
507
  5
5BB
331
5F3
  5
6A7
331
7CB
  5
87F
331
CF9
  5
D26
331
D38
  5
D0B
331
8BF
  5
973
331
5FB
  5
6AF
331
50F
  5
5C3
331
6E7
  5
79B
331
7D3
  5
887
331
9AB
  5
A1D
331
D01
  5
D2E
331
D40
  5
D13
331
7DB
  5
88F
331
6EF
  5
7A3
331
8C7
  5
97B
331
9B3
  5
A25
331
CCA
  5
33
331
D09
  5
D36
331
D48
  5
D1B
331
8CF
  5
983
331
9BB
  5
A45
331
CD2
  5
53
331
D11
  5
D3E
331
63
  5
117
331
6B
  5
11F
331
73
  5
127
331
157
  5
20B
331
243
  5
2F7
331
337
  5
3EB
331
15F
  5
213
331
24B
  5
2FF
331
423
  5
4D7
331
517
  5
5CB
331
33F
  5
3F3
331
167
  5
21B
331
253
  5
307
331
42B
  5
4DF
331
603
  5
6B7
331
6F7
  5
7AB
331
51F
  5
5D3
331
347
  5
3FB
331
433
  5
4E7
331
60B
  5
6BF
331
7E3
  5
897
331
9C3
  5
A65
331
6FF
  5
7B3
331
527
  5
5DB
331
613
  5
6C7
331
7EB
  5
89F
331
8D7
  5
98B
331
CDA
  5
73
331
D19
  5
D46
331
8DF
  5
993
331
707
  5
7BB
331
7F3
  5
8A7
331
CE2
  5
93
331
D21
  5
D4E
331
D29
  5
CFC
331
8E7
  5
99B
331
CEA
  5
B3
331
CF2
  5
D3
331
7B
  5
12F
331
16F
  5
223
331
83
  5
137
331
25B
  5
30F
331
43B
  5
4EF
331
177
  5
22B
331
8B
  5
13F
331
263
  5
317
331
34F
  5
403
331
61B
  5
6CF
331
357
  5
40B
331
93
  5
147
331
17F
  5
233
331
26B
  5
31F
331
443
  5
4F7
331
52F
  5
5E3
331
7FB
  5
8AF
331
623
  5
6D7
331
35F
  5
413
331
187
  5
23B
331
273
  5
327
331
44B
  5
4FF
331
537
  5
5EB
331
70F
  5
7C3
331
D31
  5
D04
331
717
  5
7CB
331
53F
  5
5F3
331
367
  5
41B
331
453
  5
507
331
62B
  5
6DF
331
803
  5
8B7
331
8EF
  5
9A3
331
CFA
  5
D27
331
D39
  5
D0C
331
71F
  5
7D3
331
547
  5
5FB
331
633
  5
6E7
331
80B
  5
8BF
331
8F7
  5
9AB
331
D02
  5
D2F
331
D41
  5
D14
331
9B4
  5
A29
331
8FF
  5
9B3
331
727
  5
7DB
331
813
  5
8C7
331
CCB
  5
37
331
D0A
  5
D37
331
D49
  5
D1C
331
9BC
  5
A49
331
907
  5
9B5
331
CD3
  5
57
331
D12
  5
D3F
331
9B
  5
14F
331
27B
  5
32F
331
A3
  5
157
331
18F
  5
243
331
45B
  5
50F
331
AB
  5
15F
331
197
  5
24B
331
283
  5
337
331
36F
  5
423
331
63B
  5
6EF
331
377
  5
42B
331
B3
  5
167
331
19F
  5
253
331
28B
  5
33F
331
463
  5
517
331
54F
  5
603
331
557
  5
60B
331
293
  5
347
331
1A7
  5
25B
331
37F
  5
433
331
46B
  5
51F
331
643
  5
6F7
331
72F
  5
7E3
331
81B
  5
8CF
331
9C4
  5
A69
331
737
  5
7EB
331
55F
  5
613
331
387
  5
43B
331
473
  5
527
331
64B
  5
6FF
331
823
  5
8D7
331
90F
  5
9B7
331
CDB
  5
77
331
D1A
  5
D47
331
653
  5
707
331
567
  5
61B
331
73F
  5
7F3
331
82B
  5
8DF
331
917
  5
9B9
331
CE3
  5
97
331
D22
  5
CF5
331
D2A
  5
CFD
331
747
  5
7FB
331
833
  5
8E7
331
91F
  5
9BB
331
CEB
  5
B7
331
927
  5
9BD
331
BB
  5
16F
331
29B
  5
34F
331
C3
  5
177
331
1AF
  5
263
331
47B
  5
52F
331
1B7
  5
26B
331
CB
  5
17F
331
2A3
  5
357
331
38F
  5
443
331
65B
  5
70F
331
397
  5
44B
331
D3
  5
187
331
1BF
  5
273
331
2AB
  5
35F
331
483
  5
537
331
56F
  5
623
331
83B
  5
8EF
331
577
  5
62B
331
2B3
  5
367
331
1C7
  5
27B
331
39F
  5
453
331
48B
  5
53F
331
663
  5
717
331
74F
  5
803
331
D32
  5
D05
331
843
  5
8F7
331
57F
  5
633
331
3A7
  5
45B
331
493
  5
547
331
66B
  5
71F
331
757
  5
80B
331
92F
  5
9BF
331
CFB
  5
D28
331
D3A
  5
D0D
331
75F
  5
813
331
587
  5
63B
331
673
  5
727
331
84B
  5
8FF
331
937
  5
9C1
331
D03
  5
D30
331
D42
  5
D15
331
9B5
  5
A2D
331
767
  5
81B
331
853
  5
907
331
93F
  5
9C3
331
CCC
  5
3B
331
D0B
  5
D38
331
947
  5
9C5
331
9BD
  5
A4D
331
CD4
  5
5B
331
D13
  5
D40
331
DB
  5
18F
331
2BB
  5
36F
331
E3
  5
197
331
1CF
  5
283
331
49B
  5
54F
331
1D7
  5
28B
331
EB
  5
19F
331
2C3
  5
377
331
3AF
  5
463
331
67B
  5
72F
331
4A3
  5
557
331
1DF
  5
293
331
2CB
  5
37F
331
3B7
  5
46B
331
58F
  5
643
331
85B
  5
90F
331
597
  5
64B
331
3BF
  5
473
331
4AB
  5
55F
331
683
  5
737
331
76F
  5
823
  0
LAYOUT
  5
CBF
102
{ACAD_XDICTIONARY
360
179C
102
}
102
{ACAD_REACTORS
330
CBC
102
}
330
CBC
100
AcDbPlotSettings
  1

  2
HP LaserJet P2015 PCL6
  4

  6

 40
0.0
 41
0.0
 42
0.0
 43
0.0
 44
0.0
 45
0.0
 46
0.0
 47
0.0
 48
0.0
 49
0.0
140
0.0
141
0.0
142
1.0
143
1.0
 70
   688
 72
     0
 73
     0
 74
     5
  7

 75
    16
147
1.0
148
0.0
149
0.0
100
AcDbLayout
  1
Layout1
 70
     0
 71
     1
 10
0.0
 20
0.0
 11
12.0
 21
9.0
 12
0.0
 22
0.0
 32
0.0
 14
1.000000000000000E+20
 24
1.000000000000000E+20
 34
1.000000000000000E+20
 15
-1.000000000000000E+20
 25
-1.000000000000000E+20
 35
-1.000000000000000E+20
146
0.0
 13
0.0
 23
0.0
 33
0.0
 16
1.0
 26
0.0
 36
0.0
 17
0.0
 27
1.0
 37
0.0
 76
     0
330
B
  0
LAYOUT
  5
CBE
102
{ACAD_XDICTIONARY
360
179A
102
}
102
{ACAD_REACTORS
330
CBC
102
}
330
CBC
100
AcDbPlotSettings
  1

  2
Canon_i9100 (PrintFab).pc3
  4
User255
  6

 40
3.174999952316284
 41
3.174999952316284
 42
3.175003051757812
 43
3.17498779296875
 44
215.9000091552734
 45
279.3999938964844
 46
5.08
 47
0.0
 48
0.0
 49
0.0
140
0.0
141
0.0
142
1.0
143
0.0393700787401575
 70
 11936
 72
     1
 73
     0
 74
     1
  7

 75
     0
147
25.4
148
-0.7268966020775132
149
-0.2899436816075091
100
AcDbLayout
  1
Model
 70
     1
 71
     0
 10
0.0
 20
0.0
 11
12.0
 21
9.0
 12
0.0
 22
0.0
 32
0.0
 14
0.0
 24
0.0
 34
0.0
 15
0.0
 25
0.0
 35
0.0
146
0.0
 13
0.0
 23
0.0
 33
0.0
 16
1.0
 26
0.0
 36
0.0
 17
0.0
 27
1.0
 37
0.0
 76
     0
330
A
1001
ACAD_PSEXT
1000
Canon_i9100 (PrintFab).pc3
1000
Canon_i9100_PrintFab01460001
1000
ZEDONUL
1000

1070
     0
  0
MLINESTYLE
  5
1C
102
{ACAD_REACTORS
330
1B
102
}
330
1B
100
AcDbMlineStyle
  2
STANDARD
 70
     0
  3

 62
     0
 51
90.0
 52
90.0
 71
     2
 49
0.5
 62
   256
  6
BYLAYER
 49
-0.5
 62
   256
  6
BYLAYER
  0
ACDBPLACEHOLDER
  5
CB7
102
{ACAD_REACTORS
330
CB6
102
}
330
CB6
  0
TABLESTYLE
  5
CBB
102
{ACAD_REACTORS
330
CBA
102
}
330
CBA
100
AcDbTableStyle
  3
Standard
 70
     0
 71
     0
 40
0.06
 41
0.06
280
     0
281
     0
  7
STANDARD
140
0.18
170
     2
 62
     0
 63
     7
283
     0
274
    -2
284
     1
 64
     0
275
    -2
285
     1
 65
     0
276
    -2
286
     1
 66
     0
277
    -2
287
     1
 67
     0
278
    -2
288
     1
 68
     0
279
    -2
289
     1
 69
     0
  7
STANDARD
140
0.25
170
     5
 62
     0
 63
     7
283
     0
274
    -2
284
     1
 64
     0
275
    -2
285
     1
 65
     0
276
    -2
286
     1
 66
     0
277
    -2
287
     1
 67
     0
278
    -2
288
     1
 68
     0
279
    -2
289
     1
 69
     0
  7
STANDARD
140
0.18
170
     5
 62
     0
 63
     7
283
     0
274
    -2
284
     1
 64
     0
275
    -2
285
     1
 65
     0
276
    -2
286
     1
 66
     0
277
    -2
287
     1
 67
     0
278
    -2
288
     1
 68
     0
279
    -2
289
     1
 69
     0
  0
DICTIONARYVAR
  5
D55
102
{ACAD_REACTORS
330
D54
102
}
330
D54
100
DictionaryVariables
280
     0
  1
STANDARD
  0
DICTIONARYVAR
  5
1796
102
{ACAD_REACTORS
330
D54
102
}
330
D54
100
DictionaryVariables
280
     0
  1
1
  0
DICTIONARYVAR
  5
1797
102
{ACAD_REACTORS
330
D54
102
}
330
D54
100
DictionaryVariables
280
     0
  1

  0
XRECORD
  5
1795
102
{ACAD_REACTORS
330
1794
102
}
330
1794
100
AcDbXrecord
280
     1
  0
DICTIONARY
  5
179C
330
CBF
100
AcDbDictionary
280
     1
281
     1
  3
ACAD_XREC_ROUNDTRIP
360
179D
  0
DICTIONARY
  5
179A
330
CBE
100
AcDbDictionary
280
     1
281
     1
  3
ACAD_XREC_ROUNDTRIP
360
179B
  0
XRECORD
  5
179D
102
{ACAD_REACTORS
330
179C
102
}
330
179C
100
AcDbXrecord
280
     1
102
SHADEPLOT
 70
     0
102
SHADEPLOTRESLEVEL
 70
     2
102
SHADEPLOTCUSTOMDPI
 70
   300
  0
XRECORD
  5
179B
102
{ACAD_REACTORS
330
179A
102
}
330
179A
100
AcDbXrecord
280
     1
102
SHADEPLOT
 70
     0
102
SHADEPLOTRESLEVEL
 70
     2
102
SHADEPLOTCUSTOMDPI
 70
   300
  0
ENDSEC
  0
EOF
