  0
SECTION
  2
HEADER
  9
$ACADVER
  1
AC1009
  9
$INSBASE
 10
0.0
 20
0.0
 30
0.0
  9
$EXTMIN
 10
0.7271668446027775
 20
0.3274508347799507
 30
-0.0000000349181948
  9
$EXTMAX
 10
5.2725629650700281
 20
5.672871258043731
 30
0.0000000814935746
  9
$LIMMIN
 10
0.0
 20
0.0
  9
$LIMMAX
 10
0.0
 20
0.0
  9
$ORTHOMODE
 70
     0
  9
$REGENMODE
 70
     1
  9
$FILLMODE
 70
     1
  9
$QTEXTMODE
 70
     0
  9
$MIRRTEXT
 70
     1
  9
$DRAGMODE
 70
     2
  9
$LTSCALE
 40
1.0
  9
$OSMODE
 70
    37
  9
$ATTMODE
 70
     1
  9
$TEXTSIZE
 40
0.0
  9
$TRACEWID
 40
0.05
  9
$TEXTSTYLE
  7
STANDARD
  9
$CLAYER
  8
0
  9
$CELTYPE
  6
CONTINUOUS
  9
$CECOLOR
 62
   256
  9
$DIMSCALE
 40
1.0
  9
$DIMASZ
 40
0.18
  9
$DIMEXO
 40
0.0625
  9
$DIMDLI
 40
0.38
  9
$DIMRND
 40
0.0
  9
$DIMDLE
 40
0.0
  9
$DIMEXE
 40
0.18
  9
$DIMTP
 40
0.0
  9
$DIMTM
 40
0.0
  9
$DIMTXT
 40
0.18
  9
$DIMCEN
 40
0.09
  9
$DIMTSZ
 40
0.0
  9
$DIMTOL
 70
     0
  9
$DIMLIM
 70
     0
  9
$DIMTIH
 70
     1
  9
$DIMTOH
 70
     1
  9
$DIMSE1
 70
     0
  9
$DIMSE2
 70
     0
  9
$DIMTAD
 70
     0
  9
$DIMZIN
 70
     0
  9
$DIMBLK
  1

  9
$DIMASO
 70
     1
  9
$DIMSHO
 70
     1
  9
$DIMPOST
  1

  9
$DIMAPOST
  1

  9
$DIMALT
 70
     0
  9
$DIMALTD
 70
     2
  9
$DIMALTF
 40
25.399999999999999
  9
$DIMLFAC
 40
1.0
  9
$DIMTOFL
 70
     0
  9
$DIMTVP
 40
0.0
  9
$DIMTIX
 70
     0
  9
$DIMSOXD
 70
     0
  9
$DIMSAH
 70
     0
  9
$DIMBLK1
  1

  9
$DIMBLK2
  1

  9
$DIMSTYLE
  2
STANDARD
  9
$DIMCLRD
 70
     0
  9
$DIMCLRE
 70
     0
  9
$DIMCLRT
 70
     0
  9
$DIMTFAC
 40
1.0
  9
$DIMGAP
 40
0.09
  9
$LUNITS
 70
     2
  9
$LUPREC
 70
     4
  9
$SKETCHINC
 40
0.1
  9
$FILLETRAD
 40
0.0
  9
$AUNITS
 70
     0
  9
$AUPREC
 70
     0
  9
$MENU
  1
acad
  9
$ELEVATION
 40
0.0
  9
$PELEVATION
 40
0.0
  9
$THICKNESS
 40
0.0
  9
$LIMCHECK
 70
     0
  9
$BLIPMODE
 70
     0
  9
$CHAMFERA
 40
0.0
  9
$CHAMFERB
 40
0.0
  9
$SKPOLY
 70
     0
  9
$TDCREATE
 40
2305814.0421760539
  9
$TDUPDATE
 40
2455683.4603736689
  9
$TDINDWG
 40
0.0221618403
  9
$TDUSRTIMER
 40
0.0221615394
  9
$USRTIMER
 70
     1
  9
$ANGBASE
 50
0.0
  9
$ANGDIR
 70
     0
  9
$PDMODE
 70
     0
  9
$PDSIZE
 40
0.0
  9
$PLINEWID
 40
0.0
  9
$COORDS
 70
     1
  9
$SPLFRAME
 70
     0
  9
$SPLINETYPE
 70
     6
  9
$SPLINESEGS
 70
     8
  9
$ATTDIA
 70
     0
  9
$ATTREQ
 70
     1
  9
$HANDLING
 70
     1
  9
$HANDSEED
  5
16C5
  9
$SURFTAB1
 70
     6
  9
$SURFTAB2
 70
     6
  9
$SURFTYPE
 70
     6
  9
$SURFU
 70
     6
  9
$SURFV
 70
     6
  9
$UCSNAME
  2

  9
$UCSORG
 10
0.0
 20
0.0
 30
0.0
  9
$UCSXDIR
 10
1.0
 20
0.0
 30
0.0
  9
$UCSYDIR
 10
0.0
 20
1.0
 30
0.0
  9
$PUCSNAME
  2

  9
$PUCSORG
 10
0.0
 20
0.0
 30
0.0
  9
$PUCSXDIR
 10
1.0
 20
0.0
 30
0.0
  9
$PUCSYDIR
 10
0.0
 20
1.0
 30
0.0
  9
$USERI1
 70
     0
  9
$USERI2
 70
     0
  9
$USERI3
 70
     0
  9
$USERI4
 70
     0
  9
$USERI5
 70
     0
  9
$USERR1
 40
0.0
  9
$USERR2
 40
0.0
  9
$USERR3
 40
0.0
  9
$USERR4
 40
0.0
  9
$USERR5
 40
0.0
  9
$WORLDVIEW
 70
     1
  9
$SHADEDGE
 70
     3
  9
$SHADEDIF
 70
    70
  9
$TILEMODE
 70
     1
  9
$MAXACTVP
 70
    16
  9
$PLIMCHECK
 70
     0
  9
$PEXTMIN
 10
1.0000000000000000E+020
 20
1.0000000000000000E+020
 30
1.0000000000000000E+020
  9
$PEXTMAX
 10
-1.0000000000000000E+020
 20
-1.0000000000000000E+020
 30
-1.0000000000000000E+020
  9
$PLIMMIN
 10
0.0
 20
0.0
  9
$PLIMMAX
 10
12.0
 20
9.0
  9
$UNITMODE
 70
     0
  9
$VISRETAIN
 70
     0
  9
$PLINEGEN
 70
     1
  9
$PSLTSCALE
 70
     0
  0
ENDSEC
  0
SECTION
  2
TABLES
  0
TABLE
  2
VPORT
 70
     4
  0
VPORT
  2
*ACTIVE
 70
     0
 10
0.0
 20
0.0
 11
1.0
 21
1.0
 12
5.1729710571907921
 22
3.1128763225074509
 13
0.0
 23
0.0
 14
1.0
 24
1.0
 15
0.0
 25
0.0
 16
0.0
 26
0.0
 36
1.0
 17
0.0
 27
0.0
 37
0.0
 40
10.32216672233265
 41
1.943855932203389
 42
50.0
 43
0.0
 44
0.0
 50
0.0
 51
0.0
 71
     0
 72
   100
 73
     1
 74
     1
 75
     0
 76
     0
 77
     0
 78
     0
  0
ENDTAB
  0
TABLE
  2
LTYPE
 70
     1
  0
LTYPE
  2
CONTINUOUS
 70
     0
  3
Solid line
 72
    65
 73
     0
 40
0.0
  0
ENDTAB
  0
TABLE
  2
LAYER
 70
     1
  0
LAYER
  2
0
 70
     0
 62
     7
  6
CONTINUOUS
  0
ENDTAB
  0
TABLE
  2
STYLE
 70
     1
  0
STYLE
  2
STANDARD
 70
     0
 40
0.0
 41
1.0
 50
0.0
 71
     0
 42
0.0
  3
txt
  4

  0
ENDTAB
  0
TABLE
  2
VIEW
 70
     0
  0
ENDTAB
  0
TABLE
  2
UCS
 70
     0
  0
ENDTAB
  0
TABLE
  2
APPID
 70
     3
  0
APPID
  2
ACAD
 70
     0
  0
APPID
  2
DCO15
 70
     0
  0
APPID
  2
ACAD_PSEXT
 70
     0
  0
ENDTAB
  0
TABLE
  2
DIMSTYLE
 70
     1
  0
DIMSTYLE
  2
STANDARD
 70
     0
  3

  4

  5

  6

  7

 40
1.0
 41
0.18
 42
0.0625
 43
0.38
 44
0.18
 45
0.0
 46
0.0
 47
0.0
 48
0.0
140
0.18
141
0.09
142
0.0
143
25.399999999999999
144
1.0
145
0.0
146
1.0
147
0.09
 71
     0
 72
     0
 73
     1
 74
     1
 75
     0
 76
     0
 77
     0
 78
     0
170
     0
171
     2
172
     0
173
     0
174
     0
175
     0
176
     0
177
     0
178
     0
  0
ENDTAB
  0
ENDSEC
  0
SECTION
  2
BLOCKS
  0
BLOCK
  8
0
  2
$MODEL_SPACE
 70
     0
 10
0.0
 20
0.0
 30
0.0
  3
$MODEL_SPACE
  1

  0
ENDBLK
  5
E
  8
0
  0
BLOCK
 67
     1
  8
0
  2
$PAPER_SPACE
 70
     0
 10
0.0
 20
0.0
 30
0.0
  3
$PAPER_SPACE
  1

  0
ENDBLK
  5
10
 67
     1
  8
0
  0
ENDSEC
  0
SECTION
  2
ENTITIES
  0
POLYLINE
  5
23
  8
0
 62
     7
 66
     1
 10
0.0
 20
0.0
 30
0.0
 40
0.009
 41
0.009
  0
VERTEX
  5
D70
  8
0
 62
     7
 10
4.4219999999999988
 20
3.0
 30
0.0
  0
VERTEX
  5
D71
  8
0
 62
     7
 10
4.4719999999999986
 20
4.0
 30
0.0
  0
SEQEND
  5
D72
  8
0
 62
     7
  0
POLYLINE
  5
27
  8
0
 62
     7
 66
     1
 10
0.0
 20
0.0
 30
0.0
 70
     1
 40
0.0045
 41
0.0045
  0
VERTEX
  5
D73
  8
0
 62
     7
 10
4.4197499999999987
 20
3.0
 30
0.0
 42
1.0
  0
VERTEX
  5
D74
  8
0
 62
     7
 10
4.4242499999999989
 20
3.0
 30
0.0
 42
1.0
  0
SEQEND
  5
D75
  8
0
 62
     7
  0
POLYLINE
  5
2B
  8
0
 62
     7
 66
     1
 10
0.0
 20
0.0
 30
0.0
 70
     1
 40
0.0045
 41
0.0045
  0
VERTEX
  5
D76
  8
0
 62
     7
 10
4.4697500000000003
 20
4.0
 30
0.0
 42
1.0
  0
VERTEX
  5
D77
  8
0
 62
     7
 10
4.4742499999999987
 20
4.0
 30
0.0
 42
1.0
  0
SEQEND
  5
D78
  8
0
 62
     7
  0
POLYLINE
  5
2F
  8
0
 62
     7
 66
     1
 10
0.0
 20
0.0
 30
0.0
 40
0.009
 41
0.009
  0
VERTEX
  5
D79
  8
0
 62
     7
 10
4.4719999999999986
 20
4.0
 30
0.0
  0
VERTEX
  5
D7A
  8
0
 62
     7
 10
4.4719999999999986
 20
4.9000000000000004
 30
0.0
  0
SEQEND
  5
D7B
  8
0
 62
     7
  0
POLYLINE
  5
33
  8
0
 62
     7
 66
     1
 10
0.0
 20
0.0
 30
0.0
 70
     1
 40
0.0045
 41
0.0045
  0
VERTEX
  5
D7C
  8
0
 62
     7
 10
4.4697500000000003
 20
4.0
 30
0.0
 42
1.0
  0
VERTEX
  5
D7D
  8
0
 62
     7
 10
4.4742499999999987
 20
4.0
 30
0.0
 42
1.0
  0
SEQEND
  5
D7E
  8
0
 62
     7
  0
POLYLINE
  5
37
  8
0
 62
     7
 66
     1
 10
0.0
 20
0.0
 30
0.0
 70
     1
 40
0.0045
 41
0.0045
  0
VERTEX
  5
D7F
  8
0
 62
     7
 10
4.4697500000000003
 20
4.9000000000000004
 30
0.0
 42
1.0
  0
VERTEX
  5
D80
  8
0
 62
     7
 10
4.4742499999999987
 20
4.9000000000000004
 30
0.0
 42
1.0
  0
SEQEND
  5
D81
  8
0
 62
     7
  0
POLYLINE
  5
3B
  8
0
 62
     7
 66
     1
 10
0.0
 20
0.0
 30
0.0
 40
0.009
 41
0.009
  0
VERTEX
  5
D82
  8
0
 62
     7
 10
4.4539999999999988
 20
4.0
 30
0.0
  0
VERTEX
  5
D83
  8
0
 62
     7
 10
4.4539999999999988
 20
4.9000000000000004
 30
0.0
  0
SEQEND
  5
D84
  8
0
 62
     7
  0
POLYLINE
  5
3F
  8
0
 62
     7
 66
     1
 10
0.0
 20
0.0
 30
0.0
 70
     1
 40
0.0045
 41
0.0045
  0
VERTEX
  5
D85
  8
0
 62
     7
 10
4.4517499999999988
 20
4.0
 30
0.0
 42
1.0
  0
VERTEX
  5
D86
  8
0
 62
     7
 10
4.4562499999999989
 20
4.0
 30
0.0
 42
1.0
  0
SEQEND
  5
D87
  8
0
 62
     7
  0
POLYLINE
  5
43
  8
0
 62
     7
 66
     1
 10
0.0
 20
0.0
 30
0.0
 70
     1
 40
0.0045
 41
0.0045
  0
VERTEX
  5
D88
  8
0
 62
     7
 10
4.4517499999999988
 20
4.9000000000000004
 30
0.0
 42
1.0
  0
VERTEX
  5
D89
  8
0
 62
     7
 10
4.4562499999999989
 20
4.9000000000000004
 30
0.0
 42
1.0
  0
SEQEND
  5
D8A
  8
0
 62
     7
  0
POLYLINE
  5
47
  8
0
 62
     7
 66
     1
 10
0.0
 20
0.0
 30
0.0
 40
0.009
 41
0.009
  0
VERTEX
  5
D8B
  8
0
 62
     7
 10
4.403999999999999
 20
3.0
 30
0.0
  0
VERTEX
  5
D8C
  8
0
 62
     7
 10
4.4539999999999988
 20
4.0
 30
0.0
  0
SEQEND
  5
D8D
  8
0
 62
     7
  0
POLYLINE
  5
4B
  8
0
 62
     7
 66
     1
 10
0.0
 20
0.0
 30
0.0
 70
     1
 40
0.0045
 41
0.0045
  0
VERTEX
  5
D8E
  8
0
 62
     7
 10
4.4017499999999989
 20
3.0
 30
0.0
 42
1.0
  0
VERTEX
  5
D8F
  8
0
 62
     7
 10
4.40625
 20
3.0
 30
0.0
 42
1.0
  0
SEQEND
  5
D90
  8
0
 62
     7
  0
POLYLINE
  5
4F
  8
0
 62
     7
 66
     1
 10
0.0
 20
0.0
 30
0.0
 70
     1
 40
0.0045
 41
0.0045
  0
VERTEX
  5
D91
  8
0
 62
     7
 10
4.4517499999999988
 20
4.0
 30
0.0
 42
1.0
  0
VERTEX
  5
D92
  8
0
 62
     7
 10
4.4562499999999989
 20
4.0
 30
0.0
 42
1.0
  0
SEQEND
  5
D93
  8
0
 62
     7
  0
POLYLINE
  5
53
  8
0
 62
     7
 66
     1
 10
0.0
 20
0.0
 30
0.0
 40
0.009
 41
0.009
  0
VERTEX
  5
D94
  8
0
 62
     7
 10
4.3860000000000001
 20
3.0
 30
0.0
  0
VERTEX
  5
D95
  8
0
 62
     7
 10
4.4359999999999991
 20
4.0
 30
0.0
  0
SEQEND
  5
D96
  8
0
 62
     7
  0
POLYLINE
  5
57
  8
0
 62
     7
 66
     1
 10
0.0
 20
0.0
 30
0.0
 70
     1
 40
0.0045
 41
0.0045
  0
VERTEX
  5
D97
  8
0
 62
     7
 10
4.38375
 20
3.0
 30
0.0
 42
1.0
  0
VERTEX
  5
D98
  8
0
 62
     7
 10
4.3882500000000002
 20
3.0
 30
0.0
 42
1.0
  0
SEQEND
  5
D99
  8
0
 62
     7
  0
POLYLINE
  5
5B
  8
0
 62
     7
 66
     1
 10
0.0
 20
0.0
 30
0.0
 70
     1
 40
0.0045
 41
0.0045
  0
VERTEX
  5
D9A
  8
0
 62
     7
 10
4.433749999999999
 20
4.0
 30
0.0
 42
1.0
  0
VERTEX
  5
D9B
  8
0
 62
     7
 10
4.43825
 20
4.0
 30
0.0
 42
1.0
  0
SEQEND
  5
D9C
  8
0
 62
     7
  0
POLYLINE
  5
5F
  8
0
 62
     7
 66
     1
 10
0.0
 20
0.0
 30
0.0
 40
0.009
 41
0.009
  0
VERTEX
  5
D9D
  8
0
 62
     7
 10
4.4359999999999991
 20
4.0
 30
0.0
  0
VERTEX
  5
D9E
  8
0
 62
     7
 10
4.4359999999999991
 20
4.9000000000000004
 30
0.0
  0
SEQEND
  5
D9F
  8
0
 62
     7
  0
POLYLINE
  5
63
  8
0
 62
     7
 66
     1
 10
0.0
 20
0.0
 30
0.0
 70
     1
 40
0.0045
 41
0.0045
  0
VERTEX
  5
DA0
  8
0
 62
     7
 10
4.433749999999999
 20
4.0
 30
0.0
 42
1.0
  0
VERTEX
  5
DA1
  8
0
 62
     7
 10
4.43825
 20
4.0
 30
0.0
 42
1.0
  0
SEQEND
  5
DA2
  8
0
 62
     7
  0
POLYLINE
  5
67
  8
0
 62
     7
 66
     1
 10
0.0
 20
0.0
 30
0.0
 70
     1
 40
0.0045
 41
0.0045
  0
VERTEX
  5
DA3
  8
0
 62
     7
 10
4.433749999999999
 20
4.9000000000000004
 30
0.0
 42
1.0
  0
VERTEX
  5
DA4
  8
0
 62
     7
 10
4.43825
 20
4.9000000000000004
 30
0.0
 42
1.0
  0
SEQEND
  5
DA5
  8
0
 62
     7
  0
POLYLINE
  5
6B
  8
0
 62
     7
 66
     1
 10
0.0
 20
0.0
 30
0.0
 40
0.009
 41
0.009
  0
VERTEX
  5
DA6
  8
0
 62
     7
 10
4.4180000000000001
 20
4.0
 30
0.0
  0
VERTEX
  5
DA7
  8
0
 62
     7
 10
4.4180000000000001
 20
4.9000000000000004
 30
0.0
  0
SEQEND
  5
DA8
  8
0
 62
     7
  0
POLYLINE
  5
6F
  8
0
 62
     7
 66
     1
 10
0.0
 20
0.0
 30
0.0
 70
     1
 40
0.0045
 41
0.0045
  0
VERTEX
  5
DA9
  8
0
 62
     7
 10
4.4157500000000001
 20
4.0
 30
0.0
 42
1.0
  0
VERTEX
  5
DAA
  8
0
 62
     7
 10
4.4202500000000002
 20
4.0
 30
0.0
 42
1.0
  0
SEQEND
  5
DAB
  8
0
 62
     7
  0
POLYLINE
  5
73
  8
0
 62
     7
 66
     1
 10
0.0
 20
0.0
 30
0.0
 70
     1
 40
0.0045
 41
0.0045
  0
VERTEX
  5
DAC
  8
0
 62
     7
 10
4.4157500000000001
 20
4.9000000000000004
 30
0.0
 42
1.0
  0
VERTEX
  5
DAD
  8
0
 62
     7
 10
4.4202500000000002
 20
4.9000000000000004
 30
0.0
 42
1.0
  0
SEQEND
  5
DAE
  8
0
 62
     7
  0
POLYLINE
  5
77
  8
0
 62
     7
 66
     1
 10
0.0
 20
0.0
 30
0.0
 40
0.009
 41
0.009
  0
VERTEX
  5
DAF
  8
0
 62
     7
 10
4.3680000000000003
 20
3.0
 30
0.0
  0
VERTEX
  5
DB0
  8
0
 62
     7
 10
4.4180000000000001
 20
4.0
 30
0.0
  0
SEQEND
  5
DB1
  8
0
 62
     7
  0
POLYLINE
  5
7B
  8
0
 62
     7
 66
     1
 10
0.0
 20
0.0
 30
0.0
 70
     1
 40
0.0045
 41
0.0045
  0
VERTEX
  5
DB2
  8
0
 62
     7
 10
4.3657500000000002
 20
3.0
 30
0.0
 42
1.0
  0
VERTEX
  5
DB3
  8
0
 62
     7
 10
4.3702500000000004
 20
3.0
 30
0.0
 42
1.0
  0
SEQEND
  5
DB4
  8
0
 62
     7
  0
POLYLINE
  5
7F
  8
0
 62
     7
 66
     1
 10
0.0
 20
0.0
 30
0.0
 70
     1
 40
0.0045
 41
0.0045
  0
VERTEX
  5
DB5
  8
0
 62
     7
 10
4.4157500000000001
 20
4.0
 30
0.0
 42
1.0
  0
VERTEX
  5
DB6
  8
0
 62
     7
 10
4.4202500000000002
 20
4.0
 30
0.0
 42
1.0
  0
SEQEND
  5
DB7
  8
0
 62
     7
  0
POLYLINE
  5
83
  8
0
 62
     7
 66
     1
 10
0.0
 20
0.0
 30
0.0
 40
0.009
 41
0.009
  0
VERTEX
  5
DB8
  8
0
 62
     7
 10
4.3499999999999988
 20
3.0
 30
0.0
  0
VERTEX
  5
DB9
  8
0
 62
     7
 10
4.4000000000000004
 20
4.0
 30
0.0
  0
SEQEND
  5
DBA
  8
0
 62
     7
  0
POLYLINE
  5
87
  8
0
 62
     7
 66
     1
 10
0.0
 20
0.0
 30
0.0
 70
     1
 40
0.0045
 41
0.0045
  0
VERTEX
  5
DBB
  8
0
 62
     7
 10
4.3477499999999987
 20
3.0
 30
0.0
 42
1.0
  0
VERTEX
  5
DBC
  8
0
 62
     7
 10
4.3522499999999988
 20
3.0
 30
0.0
 42
1.0
  0
SEQEND
  5
DBD
  8
0
 62
     7
  0
POLYLINE
  5
8B
  8
0
 62
     7
 66
     1
 10
0.0
 20
0.0
 30
0.0
 70
     1
 40
0.0045
 41
0.0045
  0
VERTEX
  5
DBE
  8
0
 62
     7
 10
4.3977500000000003
 20
4.0
 30
0.0
 42
1.0
  0
VERTEX
  5
DBF
  8
0
 62
     7
 10
4.4022500000000004
 20
4.0
 30
0.0
 42
1.0
  0
SEQEND
  5
DC0
  8
0
 62
     7
  0
POLYLINE
  5
8F
  8
0
 62
     7
 66
     1
 10
0.0
 20
0.0
 30
0.0
 40
0.009
 41
0.009
  0
VERTEX
  5
DC1
  8
0
 62
     7
 10
4.4000000000000004
 20
4.0
 30
0.0
  0
VERTEX
  5
DC2
  8
0
 62
     7
 10
4.4000000000000004
 20
4.9000000000000004
 30
0.0
  0
SEQEND
  5
DC3
  8
0
 62
     7
  0
POLYLINE
  5
93
  8
0
 62
     7
 66
     1
 10
0.0
 20
0.0
 30
0.0
 70
     1
 40
0.0045
 41
0.0045
  0
VERTEX
  5
DC4
  8
0
 62
     7
 10
4.3977500000000003
 20
4.0
 30
0.0
 42
1.0
  0
VERTEX
  5
DC5
  8
0
 62
     7
 10
4.4022500000000004
 20
4.0
 30
0.0
 42
1.0
  0
SEQEND
  5
DC6
  8
0
 62
     7
  0
POLYLINE
  5
97
  8
0
 62
     7
 66
     1
 10
0.0
 20
0.0
 30
0.0
 70
     1
 40
0.0045
 41
0.0045
  0
VERTEX
  5
DC7
  8
0
 62
     7
 10
4.3977500000000003
 20
4.9000000000000004
 30
0.0
 42
1.0
  0
VERTEX
  5
DC8
  8
0
 62
     7
 10
4.4022500000000004
 20
4.9000000000000004
 30
0.0
 42
1.0
  0
SEQEND
  5
DC9
  8
0
 62
     7
  0
POLYLINE
  5
9B
  8
0
 62
     7
 66
     1
 10
0.0
 20
0.0
 30
0.0
 40
0.008
 41
0.008
  0
VERTEX
  5
DCA
  8
0
 62
     7
 10
4.3140000000000001
 20
3.0
 30
0.0
  0
VERTEX
  5
DCB
  8
0
 62
     7
 10
4.363999999999999
 20
4.0
 30
0.0
  0
SEQEND
  5
DCC
  8
0
 62
     7
  0
POLYLINE
  5
9F
  8
0
 62
     7
 66
     1
 10
0.0
 20
0.0
 30
0.0
 70
     1
 40
0.004
 41
0.004
  0
VERTEX
  5
DCD
  8
0
 62
     7
 10
4.3120000000000003
 20
3.0
 30
0.0
 42
1.0
  0
VERTEX
  5
DCE
  8
0
 62
     7
 10
4.3159999999999989
 20
3.0
 30
0.0
 42
1.0
  0
SEQEND
  5
DCF
  8
0
 62
     7
  0
POLYLINE
  5
A3
  8
0
 62
     7
 66
     1
 10
0.0
 20
0.0
 30
0.0
 70
     1
 40
0.004
 41
0.004
  0
VERTEX
  5
DD0
  8
0
 62
     7
 10
4.3620000000000001
 20
4.0
 30
0.0
 42
1.0
  0
VERTEX
  5
DD1
  8
0
 62
     7
 10
4.3659999999999997
 20
4.0
 30
0.0
 42
1.0
  0
SEQEND
  5
DD2
  8
0
 62
     7
  0
POLYLINE
  5
A7
  8
0
 62
     7
 66
     1
 10
0.0
 20
0.0
 30
0.0
 40
0.008
 41
0.008
  0
VERTEX
  5
DD3
  8
0
 62
     7
 10
4.363999999999999
 20
4.0
 30
0.0
  0
VERTEX
  5
DD4
  8
0
 62
     7
 10
4.363999999999999
 20
4.9000000000000004
 30
0.0
  0
SEQEND
  5
DD5
  8
0
 62
     7
  0
POLYLINE
  5
AB
  8
0
 62
     7
 66
     1
 10
0.0
 20
0.0
 30
0.0
 70
     1
 40
0.004
 41
0.004
  0
VERTEX
  5
DD6
  8
0
 62
     7
 10
4.3620000000000001
 20
4.0
 30
0.0
 42
1.0
  0
VERTEX
  5
DD7
  8
0
 62
     7
 10
4.3659999999999997
 20
4.0
 30
0.0
 42
1.0
  0
SEQEND
  5
DD8
  8
0
 62
     7
  0
POLYLINE
  5
AF
  8
0
 62
     7
 66
     1
 10
0.0
 20
0.0
 30
0.0
 70
     1
 40
0.004
 41
0.004
  0
VERTEX
  5
DD9
  8
0
 62
     7
 10
4.3620000000000001
 20
4.9000000000000004
 30
0.0
 42
1.0
  0
VERTEX
  5
DDA
  8
0
 62
     7
 10
4.3659999999999997
 20
4.9000000000000004
 30
0.0
 42
1.0
  0
SEQEND
  5
DDB
  8
0
 62
     7
  0
POLYLINE
  5
B3
  8
0
 62
     7
 66
     1
 10
0.0
 20
0.0
 30
0.0
 40
0.008
 41
0.008
  0
VERTEX
  5
DDC
  8
0
 62
     7
 10
4.347999999999999
 20
4.0
 30
0.0
  0
VERTEX
  5
DDD
  8
0
 62
     7
 10
4.347999999999999
 20
4.9000000000000004
 30
0.0
  0
SEQEND
  5
DDE
  8
0
 62
     7
  0
POLYLINE
  5
B7
  8
0
 62
     7
 66
     1
 10
0.0
 20
0.0
 30
0.0
 70
     1
 40
0.004
 41
0.004
  0
VERTEX
  5
DDF
  8
0
 62
     7
 10
4.3460000000000001
 20
4.0
 30
0.0
 42
1.0
  0
VERTEX
  5
DE0
  8
0
 62
     7
 10
4.3499999999999988
 20
4.0
 30
0.0
 42
1.0
  0
SEQEND
  5
DE1
  8
0
 62
     7
  0
POLYLINE
  5
BB
  8
0
 62
     7
 66
     1
 10
0.0
 20
0.0
 30
0.0
 70
     1
 40
0.004
 41
0.004
  0
VERTEX
  5
DE2
  8
0
 62
     7
 10
4.3460000000000001
 20
4.9000000000000004
 30
0.0
 42
1.0
  0
VERTEX
  5
DE3
  8
0
 62
     7
 10
4.3499999999999988
 20
4.9000000000000004
 30
0.0
 42
1.0
  0
SEQEND
  5
DE4
  8
0
 62
     7
  0
POLYLINE
  5
BF
  8
0
 62
     7
 66
     1
 10
0.0
 20
0.0
 30
0.0
 40
0.008
 41
0.008
  0
VERTEX
  5
DE5
  8
0
 62
     7
 10
4.298
 20
3.0
 30
0.0
  0
VERTEX
  5
DE6
  8
0
 62
     7
 10
4.347999999999999
 20
4.0
 30
0.0
  0
SEQEND
  5
DE7
  8
0
 62
     7
  0
POLYLINE
  5
C3
  8
0
 62
     7
 66
     1
 10
0.0
 20
0.0
 30
0.0
 70
     1
 40
0.004
 41
0.004
  0
VERTEX
  5
DE8
  8
0
 62
     7
 10
4.2960000000000003
 20
3.0
 30
0.0
 42
1.0
  0
VERTEX
  5
DE9
  8
0
 62
     7
 10
4.2999999999999989
 20
3.0
 30
0.0
 42
1.0
  0
SEQEND
  5
DEA
  8
0
 62
     7
  0
POLYLINE
  5
C7
  8
0
 62
     7
 66
     1
 10
0.0
 20
0.0
 30
0.0
 70
     1
 40
0.004
 41
0.004
  0
VERTEX
  5
DEB
  8
0
 62
     7
 10
4.3460000000000001
 20
4.0
 30
0.0
 42
1.0
  0
VERTEX
  5
DEC
  8
0
 62
     7
 10
4.3499999999999988
 20
4.0
 30
0.0
 42
1.0
  0
SEQEND
  5
DED
  8
0
 62
     7
  0
POLYLINE
  5
CB
  8
0
 62
     7
 66
     1
 10
0.0
 20
0.0
 30
0.0
 40
0.008
 41
0.008
  0
VERTEX
  5
DEE
  8
0
 62
     7
 10
4.282
 20
3.0
 30
0.0
  0
VERTEX
  5
DEF
  8
0
 62
     7
 10
4.331999999999999
 20
4.0
 30
0.0
  0
SEQEND
  5
DF0
  8
0
 62
     7
  0
POLYLINE
  5
CF
  8
0
 62
     7
 66
     1
 10
0.0
 20
0.0
 30
0.0
 70
     1
 40
0.004
 41
0.004
  0
VERTEX
  5
DF1
  8
0
 62
     7
 10
4.2800000000000002
 20
3.0
 30
0.0
 42
1.0
  0
VERTEX
  5
DF2
  8
0
 62
     7
 10
4.2839999999999989
 20
3.0
 30
0.0
 42
1.0
  0
SEQEND
  5
DF3
  8
0
 62
     7
  0
POLYLINE
  5
D3
  8
0
 62
     7
 66
     1
 10
0.0
 20
0.0
 30
0.0
 70
     1
 40
0.004
 41
0.004
  0
VERTEX
  5
DF4
  8
0
 62
     7
 10
4.3300000000000001
 20
4.0
 30
0.0
 42
1.0
  0
VERTEX
  5
DF5
  8
0
 62
     7
 10
4.3339999999999987
 20
4.0
 30
0.0
 42
1.0
  0
SEQEND
  5
DF6
  8
0
 62
     7
  0
POLYLINE
  5
D7
  8
0
 62
     7
 66
     1
 10
0.0
 20
0.0
 30
0.0
 40
0.008
 41
0.008
  0
VERTEX
  5
DF7
  8
0
 62
     7
 10
4.331999999999999
 20
4.0
 30
0.0
  0
VERTEX
  5
DF8
  8
0
 62
     7
 10
4.331999999999999
 20
4.9000000000000004
 30
0.0
  0
SEQEND
  5
DF9
  8
0
 62
     7
  0
POLYLINE
  5
DB
  8
0
 62
     7
 66
     1
 10
0.0
 20
0.0
 30
0.0
 70
     1
 40
0.004
 41
0.004
  0
VERTEX
  5
DFA
  8
0
 62
     7
 10
4.3300000000000001
 20
4.0
 30
0.0
 42
1.0
  0
VERTEX
  5
DFB
  8
0
 62
     7
 10
4.3339999999999987
 20
4.0
 30
0.0
 42
1.0
  0
SEQEND
  5
DFC
  8
0
 62
     7
  0
POLYLINE
  5
DF
  8
0
 62
     7
 66
     1
 10
0.0
 20
0.0
 30
0.0
 70
     1
 40
0.004
 41
0.004
  0
VERTEX
  5
DFD
  8
0
 62
     7
 10
4.3300000000000001
 20
4.9000000000000004
 30
0.0
 42
1.0
  0
VERTEX
  5
DFE
  8
0
 62
     7
 10
4.3339999999999987
 20
4.9000000000000004
 30
0.0
 42
1.0
  0
SEQEND
  5
DFF
  8
0
 62
     7
  0
POLYLINE
  5
E3
  8
0
 62
     7
 66
     1
 10
0.0
 20
0.0
 30
0.0
 40
0.008
 41
0.008
  0
VERTEX
  5
E00
  8
0
 62
     7
 10
4.3159999999999989
 20
4.0
 30
0.0
  0
VERTEX
  5
E01
  8
0
 62
     7
 10
4.3159999999999989
 20
4.9000000000000004
 30
0.0
  0
SEQEND
  5
E02
  8
0
 62
     7
  0
POLYLINE
  5
E7
  8
0
 62
     7
 66
     1
 10
0.0
 20
0.0
 30
0.0
 70
     1
 40
0.004
 41
0.004
  0
VERTEX
  5
E03
  8
0
 62
     7
 10
4.3140000000000001
 20
4.0
 30
0.0
 42
1.0
  0
VERTEX
  5
E04
  8
0
 62
     7
 10
4.3179999999999996
 20
4.0
 30
0.0
 42
1.0
  0
SEQEND
  5
E05
  8
0
 62
     7
  0
POLYLINE
  5
EB
  8
0
 62
     7
 66
     1
 10
0.0
 20
0.0
 30
0.0
 70
     1
 40
0.004
 41
0.004
  0
VERTEX
  5
E06
  8
0
 62
     7
 10
4.3140000000000001
 20
4.9000000000000004
 30
0.0
 42
1.0
  0
VERTEX
  5
E07
  8
0
 62
     7
 10
4.3179999999999996
 20
4.9000000000000004
 30
0.0
 42
1.0
  0
SEQEND
  5
E08
  8
0
 62
     7
  0
POLYLINE
  5
EF
  8
0
 62
     7
 66
     1
 10
0.0
 20
0.0
 30
0.0
 40
0.008
 41
0.008
  0
VERTEX
  5
E09
  8
0
 62
     7
 10
4.266
 20
3.0
 30
0.0
  0
VERTEX
  5
E0A
  8
0
 62
     7
 10
4.3159999999999989
 20
4.0
 30
0.0
  0
SEQEND
  5
E0B
  8
0
 62
     7
  0
POLYLINE
  5
F3
  8
0
 62
     7
 66
     1
 10
0.0
 20
0.0
 30
0.0
 70
     1
 40
0.004
 41
0.004
  0
VERTEX
  5
E0C
  8
0
 62
     7
 10
4.2639999999999993
 20
3.0
 30
0.0
 42
1.0
  0
VERTEX
  5
E0D
  8
0
 62
     7
 10
4.2679999999999989
 20
3.0
 30
0.0
 42
1.0
  0
SEQEND
  5
E0E
  8
0
 62
     7
  0
POLYLINE
  5
F7
  8
0
 62
     7
 66
     1
 10
0.0
 20
0.0
 30
0.0
 70
     1
 40
0.004
 41
0.004
  0
VERTEX
  5
E0F
  8
0
 62
     7
 10
4.3140000000000001
 20
4.0
 30
0.0
 42
1.0
  0
VERTEX
  5
E10
  8
0
 62
     7
 10
4.3179999999999996
 20
4.0
 30
0.0
 42
1.0
  0
SEQEND
  5
E11
  8
0
 62
     7
  0
POLYLINE
  5
FB
  8
0
 62
     7
 66
     1
 10
0.0
 20
0.0
 30
0.0
 40
0.008
 41
0.008
  0
VERTEX
  5
E12
  8
0
 62
     7
 10
4.25
 20
3.0
 30
0.0
  0
VERTEX
  5
E13
  8
0
 62
     7
 10
4.2999999999999989
 20
4.0
 30
0.0
  0
SEQEND
  5
E14
  8
0
 62
     7
  0
POLYLINE
  5
FF
  8
0
 62
     7
 66
     1
 10
0.0
 20
0.0
 30
0.0
 70
     1
 40
0.004
 41
0.004
  0
VERTEX
  5
E15
  8
0
 62
     7
 10
4.2480000000000002
 20
3.0
 30
0.0
 42
1.0
  0
VERTEX
  5
E16
  8
0
 62
     7
 10
4.2519999999999989
 20
3.0
 30
0.0
 42
1.0
  0
SEQEND
  5
E17
  8
0
 62
     7
  0
POLYLINE
  5
103
  8
0
 62
     7
 66
     1
 10
0.0
 20
0.0
 30
0.0
 70
     1
 40
0.004
 41
0.004
  0
VERTEX
  5
E18
  8
0
 62
     7
 10
4.298
 20
4.0
 30
0.0
 42
1.0
  0
VERTEX
  5
E19
  8
0
 62
     7
 10
4.3019999999999987
 20
4.0
 30
0.0
 42
1.0
  0
SEQEND
  5
E1A
  8
0
 62
     7
  0
POLYLINE
  5
107
  8
0
 62
     7
 66
     1
 10
0.0
 20
0.0
 30
0.0
 40
0.008
 41
0.008
  0
VERTEX
  5
E1B
  8
0
 62
     7
 10
4.2999999999999989
 20
4.0
 30
0.0
  0
VERTEX
  5
E1C
  8
0
 62
     7
 10
4.2999999999999989
 20
4.9000000000000004
 30
0.0
  0
SEQEND
  5
E1D
  8
0
 62
     7
  0
POLYLINE
  5
10B
  8
0
 62
     7
 66
     1
 10
0.0
 20
0.0
 30
0.0
 70
     1
 40
0.004
 41
0.004
  0
VERTEX
  5
E1E
  8
0
 62
     7
 10
4.298
 20
4.0
 30
0.0
 42
1.0
  0
VERTEX
  5
E1F
  8
0
 62
     7
 10
4.3019999999999987
 20
4.0
 30
0.0
 42
1.0
  0
SEQEND
  5
E20
  8
0
 62
     7
  0
POLYLINE
  5
10F
  8
0
 62
     7
 66
     1
 10
0.0
 20
0.0
 30
0.0
 70
     1
 40
0.004
 41
0.004
  0
VERTEX
  5
E21
  8
0
 62
     7
 10
4.298
 20
4.9000000000000004
 30
0.0
 42
1.0
  0
VERTEX
  5
E22
  8
0
 62
     7
 10
4.3019999999999987
 20
4.9000000000000004
 30
0.0
 42
1.0
  0
SEQEND
  5
E23
  8
0
 62
     7
  0
POLYLINE
  5
113
  8
0
 62
     7
 66
     1
 10
0.0
 20
0.0
 30
0.0
 40
0.007
 41
0.007
  0
VERTEX
  5
E24
  8
0
 62
     7
 10
4.2060000000000004
 20
3.0
 30
0.0
  0
VERTEX
  5
E25
  8
0
 62
     7
 10
4.2560000000000002
 20
4.0
 30
0.0
  0
SEQEND
  5
E26
  8
0
 62
     7
  0
POLYLINE
  5
117
  8
0
 62
     7
 66
     1
 10
0.0
 20
0.0
 30
0.0
 70
     1
 40
0.0035
 41
0.0035
  0
VERTEX
  5
E27
  8
0
 62
     7
 10
4.20425
 20
3.0
 30
0.0
 42
1.0
  0
VERTEX
  5
E28
  8
0
 62
     7
 10
4.207749999999999
 20
3.0
 30
0.0
 42
1.0
  0
SEQEND
  5
E29
  8
0
 62
     7
  0
POLYLINE
  5
11B
  8
0
 62
     7
 66
     1
 10
0.0
 20
0.0
 30
0.0
 70
     1
 40
0.0035
 41
0.0035
  0
VERTEX
  5
E2A
  8
0
 62
     7
 10
4.254249999999999
 20
4.0
 30
0.0
 42
1.0
  0
VERTEX
  5
E2B
  8
0
 62
     7
 10
4.2577499999999988
 20
4.0
 30
0.0
 42
1.0
  0
SEQEND
  5
E2C
  8
0
 62
     7
  0
POLYLINE
  5
11F
  8
0
 62
     7
 66
     1
 10
0.0
 20
0.0
 30
0.0
 40
0.007
 41
0.007
  0
VERTEX
  5
E2D
  8
0
 62
     7
 10
4.2560000000000002
 20
4.0
 30
0.0
  0
VERTEX
  5
E2E
  8
0
 62
     7
 10
4.2560000000000002
 20
4.9000000000000004
 30
0.0
  0
SEQEND
  5
E2F
  8
0
 62
     7
  0
POLYLINE
  5
123
  8
0
 62
     7
 66
     1
 10
0.0
 20
0.0
 30
0.0
 70
     1
 40
0.0035
 41
0.0035
  0
VERTEX
  5
E30
  8
0
 62
     7
 10
4.254249999999999
 20
4.0
 30
0.0
 42
1.0
  0
VERTEX
  5
E31
  8
0
 62
     7
 10
4.2577499999999988
 20
4.0
 30
0.0
 42
1.0
  0
SEQEND
  5
E32
  8
0
 62
     7
  0
POLYLINE
  5
127
  8
0
 62
     7
 66
     1
 10
0.0
 20
0.0
 30
0.0
 70
     1
 40
0.0035
 41
0.0035
  0
VERTEX
  5
E33
  8
0
 62
     7
 10
4.254249999999999
 20
4.9000000000000004
 30
0.0
 42
1.0
  0
VERTEX
  5
E34
  8
0
 62
     7
 10
4.2577499999999988
 20
4.9000000000000004
 30
0.0
 42
1.0
  0
SEQEND
  5
E35
  8
0
 62
     7
  0
POLYLINE
  5
12B
  8
0
 62
     7
 66
     1
 10
0.0
 20
0.0
 30
0.0
 40
0.007
 41
0.007
  0
VERTEX
  5
E36
  8
0
 62
     7
 10
4.2419999999999991
 20
4.0
 30
0.0
  0
VERTEX
  5
E37
  8
0
 62
     7
 10
4.2419999999999991
 20
4.9000000000000004
 30
0.0
  0
SEQEND
  5
E38
  8
0
 62
     7
  0
POLYLINE
  5
12F
  8
0
 62
     7
 66
     1
 10
0.0
 20
0.0
 30
0.0
 70
     1
 40
0.0035
 41
0.0035
  0
VERTEX
  5
E39
  8
0
 62
     7
 10
4.2402499999999987
 20
4.0
 30
0.0
 42
1.0
  0
VERTEX
  5
E3A
  8
0
 62
     7
 10
4.2437500000000004
 20
4.0
 30
0.0
 42
1.0
  0
SEQEND
  5
E3B
  8
0
 62
     7
  0
POLYLINE
  5
133
  8
0
 62
     7
 66
     1
 10
0.0
 20
0.0
 30
0.0
 70
     1
 40
0.0035
 41
0.0035
  0
VERTEX
  5
E3C
  8
0
 62
     7
 10
4.2402499999999987
 20
4.9000000000000004
 30
0.0
 42
1.0
  0
VERTEX
  5
E3D
  8
0
 62
     7
 10
4.2437500000000004
 20
4.9000000000000004
 30
0.0
 42
1.0
  0
SEQEND
  5
E3E
  8
0
 62
     7
  0
POLYLINE
  5
137
  8
0
 62
     7
 66
     1
 10
0.0
 20
0.0
 30
0.0
 40
0.007
 41
0.007
  0
VERTEX
  5
E3F
  8
0
 62
     7
 10
4.1920000000000002
 20
3.0
 30
0.0
  0
VERTEX
  5
E40
  8
0
 62
     7
 10
4.2419999999999991
 20
4.0
 30
0.0
  0
SEQEND
  5
E41
  8
0
 62
     7
  0
POLYLINE
  5
13B
  8
0
 62
     7
 66
     1
 10
0.0
 20
0.0
 30
0.0
 70
     1
 40
0.0035
 41
0.0035
  0
VERTEX
  5
E42
  8
0
 62
     7
 10
4.1902499999999989
 20
3.0
 30
0.0
 42
1.0
  0
VERTEX
  5
E43
  8
0
 62
     7
 10
4.1937499999999988
 20
3.0
 30
0.0
 42
1.0
  0
SEQEND
  5
E44
  8
0
 62
     7
  0
POLYLINE
  5
13F
  8
0
 62
     7
 66
     1
 10
0.0
 20
0.0
 30
0.0
 70
     1
 40
0.0035
 41
0.0035
  0
VERTEX
  5
E45
  8
0
 62
     7
 10
4.2402499999999987
 20
4.0
 30
0.0
 42
1.0
  0
VERTEX
  5
E46
  8
0
 62
     7
 10
4.2437500000000004
 20
4.0
 30
0.0
 42
1.0
  0
SEQEND
  5
E47
  8
0
 62
     7
  0
POLYLINE
  5
143
  8
0
 62
     7
 66
     1
 10
0.0
 20
0.0
 30
0.0
 40
0.007
 41
0.007
  0
VERTEX
  5
E48
  8
0
 62
     7
 10
4.177999999999999
 20
3.0
 30
0.0
  0
VERTEX
  5
E49
  8
0
 62
     7
 10
4.2279999999999989
 20
4.0
 30
0.0
  0
SEQEND
  5
E4A
  8
0
 62
     7
  0
POLYLINE
  5
147
  8
0
 62
     7
 66
     1
 10
0.0
 20
0.0
 30
0.0
 70
     1
 40
0.0035
 41
0.0035
  0
VERTEX
  5
E4B
  8
0
 62
     7
 10
4.1762499999999987
 20
3.0
 30
0.0
 42
1.0
  0
VERTEX
  5
E4C
  8
0
 62
     7
 10
4.1797500000000003
 20
3.0
 30
0.0
 42
1.0
  0
SEQEND
  5
E4D
  8
0
 62
     7
  0
POLYLINE
  5
14B
  8
0
 62
     7
 66
     1
 10
0.0
 20
0.0
 30
0.0
 70
     1
 40
0.0035
 41
0.0035
  0
VERTEX
  5
E4E
  8
0
 62
     7
 10
4.2262500000000003
 20
4.0
 30
0.0
 42
1.0
  0
VERTEX
  5
E4F
  8
0
 62
     7
 10
4.2297500000000001
 20
4.0
 30
0.0
 42
1.0
  0
SEQEND
  5
E50
  8
0
 62
     7
  0
POLYLINE
  5
14F
  8
0
 62
     7
 66
     1
 10
0.0
 20
0.0
 30
0.0
 40
0.007
 41
0.007
  0
VERTEX
  5
E51
  8
0
 62
     7
 10
4.2279999999999989
 20
4.0
 30
0.0
  0
VERTEX
  5
E52
  8
0
 62
     7
 10
4.2279999999999989
 20
4.9000000000000004
 30
0.0
  0
SEQEND
  5
E53
  8
0
 62
     7
  0
POLYLINE
  5
153
  8
0
 62
     7
 66
     1
 10
0.0
 20
0.0
 30
0.0
 70
     1
 40
0.0035
 41
0.0035
  0
VERTEX
  5
E54
  8
0
 62
     7
 10
4.2262500000000003
 20
4.0
 30
0.0
 42
1.0
  0
VERTEX
  5
E55
  8
0
 62
     7
 10
4.2297500000000001
 20
4.0
 30
0.0
 42
1.0
  0
SEQEND
  5
E56
  8
0
 62
     7
  0
POLYLINE
  5
157
  8
0
 62
     7
 66
     1
 10
0.0
 20
0.0
 30
0.0
 70
     1
 40
0.0035
 41
0.0035
  0
VERTEX
  5
E57
  8
0
 62
     7
 10
4.2262500000000003
 20
4.9000000000000004
 30
0.0
 42
1.0
  0
VERTEX
  5
E58
  8
0
 62
     7
 10
4.2297500000000001
 20
4.9000000000000004
 30
0.0
 42
1.0
  0
SEQEND
  5
E59
  8
0
 62
     7
  0
POLYLINE
  5
15B
  8
0
 62
     7
 66
     1
 10
0.0
 20
0.0
 30
0.0
 40
0.007
 41
0.007
  0
VERTEX
  5
E5A
  8
0
 62
     7
 10
4.2139999999999986
 20
4.0
 30
0.0
  0
VERTEX
  5
E5B
  8
0
 62
     7
 10
4.2139999999999986
 20
4.9000000000000004
 30
0.0
  0
SEQEND
  5
E5C
  8
0
 62
     7
  0
POLYLINE
  5
15F
  8
0
 62
     7
 66
     1
 10
0.0
 20
0.0
 30
0.0
 70
     1
 40
0.0035
 41
0.0035
  0
VERTEX
  5
E5D
  8
0
 62
     7
 10
4.21225
 20
4.0
 30
0.0
 42
1.0
  0
VERTEX
  5
E5E
  8
0
 62
     7
 10
4.215749999999999
 20
4.0
 30
0.0
 42
1.0
  0
SEQEND
  5
E5F
  8
0
 62
     7
  0
POLYLINE
  5
163
  8
0
 62
     7
 66
     1
 10
0.0
 20
0.0
 30
0.0
 70
     1
 40
0.0035
 41
0.0035
  0
VERTEX
  5
E60
  8
0
 62
     7
 10
4.21225
 20
4.9000000000000004
 30
0.0
 42
1.0
  0
VERTEX
  5
E61
  8
0
 62
     7
 10
4.215749999999999
 20
4.9000000000000004
 30
0.0
 42
1.0
  0
SEQEND
  5
E62
  8
0
 62
     7
  0
POLYLINE
  5
167
  8
0
 62
     7
 66
     1
 10
0.0
 20
0.0
 30
0.0
 40
0.007
 41
0.007
  0
VERTEX
  5
E63
  8
0
 62
     7
 10
4.1639999999999988
 20
3.0
 30
0.0
  0
VERTEX
  5
E64
  8
0
 62
     7
 10
4.2139999999999986
 20
4.0
 30
0.0
  0
SEQEND
  5
E65
  8
0
 62
     7
  0
POLYLINE
  5
16B
  8
0
 62
     7
 66
     1
 10
0.0
 20
0.0
 30
0.0
 70
     1
 40
0.0035
 41
0.0035
  0
VERTEX
  5
E66
  8
0
 62
     7
 10
4.1622500000000002
 20
3.0
 30
0.0
 42
1.0
  0
VERTEX
  5
E67
  8
0
 62
     7
 10
4.1657500000000001
 20
3.0
 30
0.0
 42
1.0
  0
SEQEND
  5
E68
  8
0
 62
     7
  0
POLYLINE
  5
16F
  8
0
 62
     7
 66
     1
 10
0.0
 20
0.0
 30
0.0
 70
     1
 40
0.0035
 41
0.0035
  0
VERTEX
  5
E69
  8
0
 62
     7
 10
4.21225
 20
4.0
 30
0.0
 42
1.0
  0
VERTEX
  5
E6A
  8
0
 62
     7
 10
4.215749999999999
 20
4.0
 30
0.0
 42
1.0
  0
SEQEND
  5
E6B
  8
0
 62
     7
  0
POLYLINE
  5
173
  8
0
 62
     7
 66
     1
 10
0.0
 20
0.0
 30
0.0
 40
0.007
 41
0.007
  0
VERTEX
  5
E6C
  8
0
 62
     7
 10
4.1500000000000004
 20
3.0
 30
0.0
  0
VERTEX
  5
E6D
  8
0
 62
     7
 10
4.2000000000000002
 20
4.0
 30
0.0
  0
SEQEND
  5
E6E
  8
0
 62
     7
  0
POLYLINE
  5
177
  8
0
 62
     7
 66
     1
 10
0.0
 20
0.0
 30
0.0
 70
     1
 40
0.0035
 41
0.0035
  0
VERTEX
  5
E6F
  8
0
 62
     7
 10
4.1482499999999991
 20
3.0
 30
0.0
 42
1.0
  0
VERTEX
  5
E70
  8
0
 62
     7
 10
4.1517499999999989
 20
3.0
 30
0.0
 42
1.0
  0
SEQEND
  5
E71
  8
0
 62
     7
  0
POLYLINE
  5
17B
  8
0
 62
     7
 66
     1
 10
0.0
 20
0.0
 30
0.0
 70
     1
 40
0.0035
 41
0.0035
  0
VERTEX
  5
E72
  8
0
 62
     7
 10
4.1982499999999989
 20
4.0
 30
0.0
 42
1.0
  0
VERTEX
  5
E73
  8
0
 62
     7
 10
4.2017499999999988
 20
4.0
 30
0.0
 42
1.0
  0
SEQEND
  5
E74
  8
0
 62
     7
  0
POLYLINE
  5
17F
  8
0
 62
     7
 66
     1
 10
0.0
 20
0.0
 30
0.0
 40
0.007
 41
0.007
  0
VERTEX
  5
E75
  8
0
 62
     7
 10
4.2000000000000002
 20
4.0
 30
0.0
  0
VERTEX
  5
E76
  8
0
 62
     7
 10
4.2000000000000002
 20
4.9000000000000004
 30
0.0
  0
SEQEND
  5
E77
  8
0
 62
     7
  0
POLYLINE
  5
183
  8
0
 62
     7
 66
     1
 10
0.0
 20
0.0
 30
0.0
 70
     1
 40
0.0035
 41
0.0035
  0
VERTEX
  5
E78
  8
0
 62
     7
 10
4.1982499999999989
 20
4.0
 30
0.0
 42
1.0
  0
VERTEX
  5
E79
  8
0
 62
     7
 10
4.2017499999999988
 20
4.0
 30
0.0
 42
1.0
  0
SEQEND
  5
E7A
  8
0
 62
     7
  0
POLYLINE
  5
187
  8
0
 62
     7
 66
     1
 10
0.0
 20
0.0
 30
0.0
 70
     1
 40
0.0035
 41
0.0035
  0
VERTEX
  5
E7B
  8
0
 62
     7
 10
4.1982499999999989
 20
4.9000000000000004
 30
0.0
 42
1.0
  0
VERTEX
  5
E7C
  8
0
 62
     7
 10
4.2017499999999988
 20
4.9000000000000004
 30
0.0
 42
1.0
  0
SEQEND
  5
E7D
  8
0
 62
     7
  0
POLYLINE
  5
18B
  8
0
 62
     7
 66
     1
 10
0.0
 20
0.0
 30
0.0
 40
0.006
 41
0.006
  0
VERTEX
  5
E7E
  8
0
 62
     7
 10
4.097999999999999
 20
3.0
 30
0.0
  0
VERTEX
  5
E7F
  8
0
 62
     7
 10
4.1479999999999988
 20
4.0
 30
0.0
  0
SEQEND
  5
E80
  8
0
 62
     7
  0
POLYLINE
  5
18F
  8
0
 62
     7
 66
     1
 10
0.0
 20
0.0
 30
0.0
 70
     1
 40
0.003
 41
0.003
  0
VERTEX
  5
E81
  8
0
 62
     7
 10
4.0964999999999989
 20
3.0
 30
0.0
 42
1.0
  0
VERTEX
  5
E82
  8
0
 62
     7
 10
4.099499999999999
 20
3.0
 30
0.0
 42
1.0
  0
SEQEND
  5
E83
  8
0
 62
     7
  0
POLYLINE
  5
193
  8
0
 62
     7
 66
     1
 10
0.0
 20
0.0
 30
0.0
 70
     1
 40
0.003
 41
0.003
  0
VERTEX
  5
E84
  8
0
 62
     7
 10
4.1464999999999987
 20
4.0
 30
0.0
 42
1.0
  0
VERTEX
  5
E85
  8
0
 62
     7
 10
4.1494999999999989
 20
4.0
 30
0.0
 42
1.0
  0
SEQEND
  5
E86
  8
0
 62
     7
  0
POLYLINE
  5
197
  8
0
 62
     7
 66
     1
 10
0.0
 20
0.0
 30
0.0
 40
0.006
 41
0.006
  0
VERTEX
  5
E87
  8
0
 62
     7
 10
4.1479999999999988
 20
4.0
 30
0.0
  0
VERTEX
  5
E88
  8
0
 62
     7
 10
4.1479999999999988
 20
4.9000000000000004
 30
0.0
  0
SEQEND
  5
E89
  8
0
 62
     7
  0
POLYLINE
  5
19B
  8
0
 62
     7
 66
     1
 10
0.0
 20
0.0
 30
0.0
 70
     1
 40
0.003
 41
0.003
  0
VERTEX
  5
E8A
  8
0
 62
     7
 10
4.1464999999999987
 20
4.0
 30
0.0
 42
1.0
  0
VERTEX
  5
E8B
  8
0
 62
     7
 10
4.1494999999999989
 20
4.0
 30
0.0
 42
1.0
  0
SEQEND
  5
E8C
  8
0
 62
     7
  0
POLYLINE
  5
19F
  8
0
 62
     7
 66
     1
 10
0.0
 20
0.0
 30
0.0
 70
     1
 40
0.003
 41
0.003
  0
VERTEX
  5
E8D
  8
0
 62
     7
 10
4.1464999999999987
 20
4.9000000000000004
 30
0.0
 42
1.0
  0
VERTEX
  5
E8E
  8
0
 62
     7
 10
4.1494999999999989
 20
4.9000000000000004
 30
0.0
 42
1.0
  0
SEQEND
  5
E8F
  8
0
 62
     7
  0
POLYLINE
  5
1A3
  8
0
 62
     7
 66
     1
 10
0.0
 20
0.0
 30
0.0
 40
0.006
 41
0.006
  0
VERTEX
  5
E90
  8
0
 62
     7
 10
4.1360000000000001
 20
4.0
 30
0.0
  0
VERTEX
  5
E91
  8
0
 62
     7
 10
4.1360000000000001
 20
4.9000000000000004
 30
0.0
  0
SEQEND
  5
E92
  8
0
 62
     7
  0
POLYLINE
  5
1A7
  8
0
 62
     7
 66
     1
 10
0.0
 20
0.0
 30
0.0
 70
     1
 40
0.003
 41
0.003
  0
VERTEX
  5
E93
  8
0
 62
     7
 10
4.1345000000000001
 20
4.0
 30
0.0
 42
1.0
  0
VERTEX
  5
E94
  8
0
 62
     7
 10
4.1375000000000002
 20
4.0
 30
0.0
 42
1.0
  0
SEQEND
  5
E95
  8
0
 62
     7
  0
POLYLINE
  5
1AB
  8
0
 62
     7
 66
     1
 10
0.0
 20
0.0
 30
0.0
 70
     1
 40
0.003
 41
0.003
  0
VERTEX
  5
E96
  8
0
 62
     7
 10
4.1345000000000001
 20
4.9000000000000004
 30
0.0
 42
1.0
  0
VERTEX
  5
E97
  8
0
 62
     7
 10
4.1375000000000002
 20
4.9000000000000004
 30
0.0
 42
1.0
  0
SEQEND
  5
E98
  8
0
 62
     7
  0
POLYLINE
  5
1AF
  8
0
 62
     7
 66
     1
 10
0.0
 20
0.0
 30
0.0
 40
0.006
 41
0.006
  0
VERTEX
  5
E99
  8
0
 62
     7
 10
4.0860000000000003
 20
3.0
 30
0.0
  0
VERTEX
  5
E9A
  8
0
 62
     7
 10
4.1360000000000001
 20
4.0
 30
0.0
  0
SEQEND
  5
E9B
  8
0
 62
     7
  0
POLYLINE
  5
1B3
  8
0
 62
     7
 66
     1
 10
0.0
 20
0.0
 30
0.0
 70
     1
 40
0.003
 41
0.003
  0
VERTEX
  5
E9C
  8
0
 62
     7
 10
4.0845000000000002
 20
3.0
 30
0.0
 42
1.0
  0
VERTEX
  5
E9D
  8
0
 62
     7
 10
4.0875000000000004
 20
3.0
 30
0.0
 42
1.0
  0
SEQEND
  5
E9E
  8
0
 62
     7
  0
POLYLINE
  5
1B7
  8
0
 62
     7
 66
     1
 10
0.0
 20
0.0
 30
0.0
 70
     1
 40
0.003
 41
0.003
  0
VERTEX
  5
E9F
  8
0
 62
     7
 10
4.1345000000000001
 20
4.0
 30
0.0
 42
1.0
  0
VERTEX
  5
EA0
  8
0
 62
     7
 10
4.1375000000000002
 20
4.0
 30
0.0
 42
1.0
  0
SEQEND
  5
EA1
  8
0
 62
     7
  0
POLYLINE
  5
1BB
  8
0
 62
     7
 66
     1
 10
0.0
 20
0.0
 30
0.0
 40
0.006
 41
0.006
  0
VERTEX
  5
EA2
  8
0
 62
     7
 10
4.073999999999999
 20
3.0
 30
0.0
  0
VERTEX
  5
EA3
  8
0
 62
     7
 10
4.1239999999999988
 20
4.0
 30
0.0
  0
SEQEND
  5
EA4
  8
0
 62
     7
  0
POLYLINE
  5
1BF
  8
0
 62
     7
 66
     1
 10
0.0
 20
0.0
 30
0.0
 70
     1
 40
0.003
 41
0.003
  0
VERTEX
  5
EA5
  8
0
 62
     7
 10
4.0724999999999989
 20
3.0
 30
0.0
 42
1.0
  0
VERTEX
  5
EA6
  8
0
 62
     7
 10
4.075499999999999
 20
3.0
 30
0.0
 42
1.0
  0
SEQEND
  5
EA7
  8
0
 62
     7
  0
POLYLINE
  5
1C3
  8
0
 62
     7
 66
     1
 10
0.0
 20
0.0
 30
0.0
 70
     1
 40
0.003
 41
0.003
  0
VERTEX
  5
EA8
  8
0
 62
     7
 10
4.1224999999999987
 20
4.0
 30
0.0
 42
1.0
  0
VERTEX
  5
EA9
  8
0
 62
     7
 10
4.1254999999999988
 20
4.0
 30
0.0
 42
1.0
  0
SEQEND
  5
EAA
  8
0
 62
     7
  0
POLYLINE
  5
1C7
  8
0
 62
     7
 66
     1
 10
0.0
 20
0.0
 30
0.0
 40
0.006
 41
0.006
  0
VERTEX
  5
EAB
  8
0
 62
     7
 10
4.1239999999999988
 20
4.0
 30
0.0
  0
VERTEX
  5
EAC
  8
0
 62
     7
 10
4.1239999999999988
 20
4.9000000000000004
 30
0.0
  0
SEQEND
  5
EAD
  8
0
 62
     7
  0
POLYLINE
  5
1CB
  8
0
 62
     7
 66
     1
 10
0.0
 20
0.0
 30
0.0
 70
     1
 40
0.003
 41
0.003
  0
VERTEX
  5
EAE
  8
0
 62
     7
 10
4.1224999999999987
 20
4.0
 30
0.0
 42
1.0
  0
VERTEX
  5
EAF
  8
0
 62
     7
 10
4.1254999999999988
 20
4.0
 30
0.0
 42
1.0
  0
SEQEND
  5
EB0
  8
0
 62
     7
  0
POLYLINE
  5
1CF
  8
0
 62
     7
 66
     1
 10
0.0
 20
0.0
 30
0.0
 70
     1
 40
0.003
 41
0.003
  0
VERTEX
  5
EB1
  8
0
 62
     7
 10
4.1224999999999987
 20
4.9000000000000004
 30
0.0
 42
1.0
  0
VERTEX
  5
EB2
  8
0
 62
     7
 10
4.1254999999999988
 20
4.9000000000000004
 30
0.0
 42
1.0
  0
SEQEND
  5
EB3
  8
0
 62
     7
  0
POLYLINE
  5
1D3
  8
0
 62
     7
 66
     1
 10
0.0
 20
0.0
 30
0.0
 40
0.006
 41
0.006
  0
VERTEX
  5
EB4
  8
0
 62
     7
 10
4.1120000000000001
 20
4.0
 30
0.0
  0
VERTEX
  5
EB5
  8
0
 62
     7
 10
4.1120000000000001
 20
4.9000000000000004
 30
0.0
  0
SEQEND
  5
EB6
  8
0
 62
     7
  0
POLYLINE
  5
1D7
  8
0
 62
     7
 66
     1
 10
0.0
 20
0.0
 30
0.0
 70
     1
 40
0.003
 41
0.003
  0
VERTEX
  5
EB7
  8
0
 62
     7
 10
4.1105
 20
4.0
 30
0.0
 42
1.0
  0
VERTEX
  5
EB8
  8
0
 62
     7
 10
4.1135000000000002
 20
4.0
 30
0.0
 42
1.0
  0
SEQEND
  5
EB9
  8
0
 62
     7
  0
POLYLINE
  5
1DB
  8
0
 62
     7
 66
     1
 10
0.0
 20
0.0
 30
0.0
 70
     1
 40
0.003
 41
0.003
  0
VERTEX
  5
EBA
  8
0
 62
     7
 10
4.1105
 20
4.9000000000000004
 30
0.0
 42
1.0
  0
VERTEX
  5
EBB
  8
0
 62
     7
 10
4.1135000000000002
 20
4.9000000000000004
 30
0.0
 42
1.0
  0
SEQEND
  5
EBC
  8
0
 62
     7
  0
POLYLINE
  5
1DF
  8
0
 62
     7
 66
     1
 10
0.0
 20
0.0
 30
0.0
 40
0.006
 41
0.006
  0
VERTEX
  5
EBD
  8
0
 62
     7
 10
4.0620000000000003
 20
3.0
 30
0.0
  0
VERTEX
  5
EBE
  8
0
 62
     7
 10
4.1120000000000001
 20
4.0
 30
0.0
  0
SEQEND
  5
EBF
  8
0
 62
     7
  0
POLYLINE
  5
1E3
  8
0
 62
     7
 66
     1
 10
0.0
 20
0.0
 30
0.0
 70
     1
 40
0.003
 41
0.003
  0
VERTEX
  5
EC0
  8
0
 62
     7
 10
4.0605000000000002
 20
3.0
 30
0.0
 42
1.0
  0
VERTEX
  5
EC1
  8
0
 62
     7
 10
4.0635000000000003
 20
3.0
 30
0.0
 42
1.0
  0
SEQEND
  5
EC2
  8
0
 62
     7
  0
POLYLINE
  5
1E7
  8
0
 62
     7
 66
     1
 10
0.0
 20
0.0
 30
0.0
 70
     1
 40
0.003
 41
0.003
  0
VERTEX
  5
EC3
  8
0
 62
     7
 10
4.1105
 20
4.0
 30
0.0
 42
1.0
  0
VERTEX
  5
EC4
  8
0
 62
     7
 10
4.1135000000000002
 20
4.0
 30
0.0
 42
1.0
  0
SEQEND
  5
EC5
  8
0
 62
     7
  0
POLYLINE
  5
1EB
  8
0
 62
     7
 66
     1
 10
0.0
 20
0.0
 30
0.0
 40
0.006
 41
0.006
  0
VERTEX
  5
EC6
  8
0
 62
     7
 10
4.0499999999999989
 20
3.0
 30
0.0
  0
VERTEX
  5
EC7
  8
0
 62
     7
 10
4.0999999999999988
 20
4.0
 30
0.0
  0
SEQEND
  5
EC8
  8
0
 62
     7
  0
POLYLINE
  5
1EF
  8
0
 62
     7
 66
     1
 10
0.0
 20
0.0
 30
0.0
 70
     1
 40
0.003
 41
0.003
  0
VERTEX
  5
EC9
  8
0
 62
     7
 10
4.0484999999999989
 20
3.0
 30
0.0
 42
1.0
  0
VERTEX
  5
ECA
  8
0
 62
     7
 10
4.051499999999999
 20
3.0
 30
0.0
 42
1.0
  0
SEQEND
  5
ECB
  8
0
 62
     7
  0
POLYLINE
  5
1F3
  8
0
 62
     7
 66
     1
 10
0.0
 20
0.0
 30
0.0
 70
     1
 40
0.003
 41
0.003
  0
VERTEX
  5
ECC
  8
0
 62
     7
 10
4.0984999999999987
 20
4.0
 30
0.0
 42
1.0
  0
VERTEX
  5
ECD
  8
0
 62
     7
 10
4.1014999999999988
 20
4.0
 30
0.0
 42
1.0
  0
SEQEND
  5
ECE
  8
0
 62
     7
  0
POLYLINE
  5
1F7
  8
0
 62
     7
 66
     1
 10
0.0
 20
0.0
 30
0.0
 40
0.006
 41
0.006
  0
VERTEX
  5
ECF
  8
0
 62
     7
 10
4.0999999999999988
 20
4.0
 30
0.0
  0
VERTEX
  5
ED0
  8
0
 62
     7
 10
4.0999999999999988
 20
4.9000000000000004
 30
0.0
  0
SEQEND
  5
ED1
  8
0
 62
     7
  0
POLYLINE
  5
1FB
  8
0
 62
     7
 66
     1
 10
0.0
 20
0.0
 30
0.0
 70
     1
 40
0.003
 41
0.003
  0
VERTEX
  5
ED2
  8
0
 62
     7
 10
4.0984999999999987
 20
4.0
 30
0.0
 42
1.0
  0
VERTEX
  5
ED3
  8
0
 62
     7
 10
4.1014999999999988
 20
4.0
 30
0.0
 42
1.0
  0
SEQEND
  5
ED4
  8
0
 62
     7
  0
POLYLINE
  5
1FF
  8
0
 62
     7
 66
     1
 10
0.0
 20
0.0
 30
0.0
 70
     1
 40
0.003
 41
0.003
  0
VERTEX
  5
ED5
  8
0
 62
     7
 10
4.0984999999999987
 20
4.9000000000000004
 30
0.0
 42
1.0
  0
VERTEX
  5
ED6
  8
0
 62
     7
 10
4.1014999999999988
 20
4.9000000000000004
 30
0.0
 42
1.0
  0
SEQEND
  5
ED7
  8
0
 62
     7
  0
POLYLINE
  5
203
  8
0
 62
     7
 66
     1
 10
0.0
 20
0.0
 30
0.0
 40
0.003
 41
0.003
  0
VERTEX
  5
ED8
  8
0
 62
     7
 10
3.7739999999999991
 20
3.0
 30
0.0
  0
VERTEX
  5
ED9
  8
0
 62
     7
 10
3.823999999999999
 20
4.0
 30
0.0
  0
SEQEND
  5
EDA
  8
0
 62
     7
  0
POLYLINE
  5
207
  8
0
 62
     7
 66
     1
 10
0.0
 20
0.0
 30
0.0
 70
     1
 40
0.0015
 41
0.0015
  0
VERTEX
  5
EDB
  8
0
 62
     7
 10
3.7732499999999991
 20
3.0
 30
0.0
 42
1.0
  0
VERTEX
  5
EDC
  8
0
 62
     7
 10
3.77475
 20
3.0
 30
0.0
 42
1.0
  0
SEQEND
  5
EDD
  8
0
 62
     7
  0
POLYLINE
  5
20B
  8
0
 62
     7
 66
     1
 10
0.0
 20
0.0
 30
0.0
 70
     1
 40
0.0015
 41
0.0015
  0
VERTEX
  5
EDE
  8
0
 62
     7
 10
3.8232499999999989
 20
4.0
 30
0.0
 42
1.0
  0
VERTEX
  5
EDF
  8
0
 62
     7
 10
3.824749999999999
 20
4.0
 30
0.0
 42
1.0
  0
SEQEND
  5
EE0
  8
0
 62
     7
  0
POLYLINE
  5
20F
  8
0
 62
     7
 66
     1
 10
0.0
 20
0.0
 30
0.0
 40
0.003
 41
0.003
  0
VERTEX
  5
EE1
  8
0
 62
     7
 10
3.823999999999999
 20
4.0
 30
0.0
  0
VERTEX
  5
EE2
  8
0
 62
     7
 10
3.823999999999999
 20
4.9000000000000004
 30
0.0
  0
SEQEND
  5
EE3
  8
0
 62
     7
  0
POLYLINE
  5
213
  8
0
 62
     7
 66
     1
 10
0.0
 20
0.0
 30
0.0
 70
     1
 40
0.0015
 41
0.0015
  0
VERTEX
  5
EE4
  8
0
 62
     7
 10
3.8232499999999989
 20
4.0
 30
0.0
 42
1.0
  0
VERTEX
  5
EE5
  8
0
 62
     7
 10
3.824749999999999
 20
4.0
 30
0.0
 42
1.0
  0
SEQEND
  5
EE6
  8
0
 62
     7
  0
POLYLINE
  5
217
  8
0
 62
     7
 66
     1
 10
0.0
 20
0.0
 30
0.0
 70
     1
 40
0.0015
 41
0.0015
  0
VERTEX
  5
EE7
  8
0
 62
     7
 10
3.8232499999999989
 20
4.9000000000000004
 30
0.0
 42
1.0
  0
VERTEX
  5
EE8
  8
0
 62
     7
 10
3.824749999999999
 20
4.9000000000000004
 30
0.0
 42
1.0
  0
SEQEND
  5
EE9
  8
0
 62
     7
  0
POLYLINE
  5
21B
  8
0
 62
     7
 66
     1
 10
0.0
 20
0.0
 30
0.0
 40
0.003
 41
0.003
  0
VERTEX
  5
EEA
  8
0
 62
     7
 10
3.8179999999999992
 20
4.0
 30
0.0
  0
VERTEX
  5
EEB
  8
0
 62
     7
 10
3.8179999999999992
 20
4.9000000000000004
 30
0.0
  0
SEQEND
  5
EEC
  8
0
 62
     7
  0
POLYLINE
  5
21F
  8
0
 62
     7
 66
     1
 10
0.0
 20
0.0
 30
0.0
 70
     1
 40
0.0015
 41
0.0015
  0
VERTEX
  5
EED
  8
0
 62
     7
 10
3.8172499999999991
 20
4.0
 30
0.0
 42
1.0
  0
VERTEX
  5
EEE
  8
0
 62
     7
 10
3.8187500000000001
 20
4.0
 30
0.0
 42
1.0
  0
SEQEND
  5
EEF
  8
0
 62
     7
  0
POLYLINE
  5
223
  8
0
 62
     7
 66
     1
 10
0.0
 20
0.0
 30
0.0
 70
     1
 40
0.0015
 41
0.0015
  0
VERTEX
  5
EF0
  8
0
 62
     7
 10
3.8172499999999991
 20
4.9000000000000004
 30
0.0
 42
1.0
  0
VERTEX
  5
EF1
  8
0
 62
     7
 10
3.8187500000000001
 20
4.9000000000000004
 30
0.0
 42
1.0
  0
SEQEND
  5
EF2
  8
0
 62
     7
  0
POLYLINE
  5
227
  8
0
 62
     7
 66
     1
 10
0.0
 20
0.0
 30
0.0
 40
0.003
 41
0.003
  0
VERTEX
  5
EF3
  8
0
 62
     7
 10
3.7679999999999998
 20
3.0
 30
0.0
  0
VERTEX
  5
EF4
  8
0
 62
     7
 10
3.8179999999999992
 20
4.0
 30
0.0
  0
SEQEND
  5
EF5
  8
0
 62
     7
  0
POLYLINE
  5
22B
  8
0
 62
     7
 66
     1
 10
0.0
 20
0.0
 30
0.0
 70
     1
 40
0.0015
 41
0.0015
  0
VERTEX
  5
EF6
  8
0
 62
     7
 10
3.7672500000000002
 20
3.0
 30
0.0
 42
1.0
  0
VERTEX
  5
EF7
  8
0
 62
     7
 10
3.7687499999999989
 20
3.0
 30
0.0
 42
1.0
  0
SEQEND
  5
EF8
  8
0
 62
     7
  0
POLYLINE
  5
22F
  8
0
 62
     7
 66
     1
 10
0.0
 20
0.0
 30
0.0
 70
     1
 40
0.0015
 41
0.0015
  0
VERTEX
  5
EF9
  8
0
 62
     7
 10
3.8172499999999991
 20
4.0
 30
0.0
 42
1.0
  0
VERTEX
  5
EFA
  8
0
 62
     7
 10
3.8187500000000001
 20
4.0
 30
0.0
 42
1.0
  0
SEQEND
  5
EFB
  8
0
 62
     7
  0
POLYLINE
  5
233
  8
0
 62
     7
 66
     1
 10
0.0
 20
0.0
 30
0.0
 40
0.003
 41
0.003
  0
VERTEX
  5
EFC
  8
0
 62
     7
 10
3.762
 20
3.0
 30
0.0
  0
VERTEX
  5
EFD
  8
0
 62
     7
 10
3.8119999999999989
 20
4.0
 30
0.0
  0
SEQEND
  5
EFE
  8
0
 62
     7
  0
POLYLINE
  5
237
  8
0
 62
     7
 66
     1
 10
0.0
 20
0.0
 30
0.0
 70
     1
 40
0.0015
 41
0.0015
  0
VERTEX
  5
EFF
  8
0
 62
     7
 10
3.7612499999999991
 20
3.0
 30
0.0
 42
1.0
  0
VERTEX
  5
F00
  8
0
 62
     7
 10
3.76275
 20
3.0
 30
0.0
 42
1.0
  0
SEQEND
  5
F01
  8
0
 62
     7
  0
POLYLINE
  5
23B
  8
0
 62
     7
 66
     1
 10
0.0
 20
0.0
 30
0.0
 70
     1
 40
0.0015
 41
0.0015
  0
VERTEX
  5
F02
  8
0
 62
     7
 10
3.8112499999999989
 20
4.0
 30
0.0
 42
1.0
  0
VERTEX
  5
F03
  8
0
 62
     7
 10
3.812749999999999
 20
4.0
 30
0.0
 42
1.0
  0
SEQEND
  5
F04
  8
0
 62
     7
  0
POLYLINE
  5
23F
  8
0
 62
     7
 66
     1
 10
0.0
 20
0.0
 30
0.0
 40
0.003
 41
0.003
  0
VERTEX
  5
F05
  8
0
 62
     7
 10
3.8119999999999989
 20
4.0
 30
0.0
  0
VERTEX
  5
F06
  8
0
 62
     7
 10
3.8119999999999989
 20
4.9000000000000004
 30
0.0
  0
SEQEND
  5
F07
  8
0
 62
     7
  0
POLYLINE
  5
243
  8
0
 62
     7
 66
     1
 10
0.0
 20
0.0
 30
0.0
 70
     1
 40
0.0015
 41
0.0015
  0
VERTEX
  5
F08
  8
0
 62
     7
 10
3.8112499999999989
 20
4.0
 30
0.0
 42
1.0
  0
VERTEX
  5
F09
  8
0
 62
     7
 10
3.812749999999999
 20
4.0
 30
0.0
 42
1.0
  0
SEQEND
  5
F0A
  8
0
 62
     7
  0
POLYLINE
  5
247
  8
0
 62
     7
 66
     1
 10
0.0
 20
0.0
 30
0.0
 70
     1
 40
0.0015
 41
0.0015
  0
VERTEX
  5
F0B
  8
0
 62
     7
 10
3.8112499999999989
 20
4.9000000000000004
 30
0.0
 42
1.0
  0
VERTEX
  5
F0C
  8
0
 62
     7
 10
3.812749999999999
 20
4.9000000000000004
 30
0.0
 42
1.0
  0
SEQEND
  5
F0D
  8
0
 62
     7
  0
POLYLINE
  5
24B
  8
0
 62
     7
 66
     1
 10
0.0
 20
0.0
 30
0.0
 40
0.003
 41
0.003
  0
VERTEX
  5
F0E
  8
0
 62
     7
 10
3.806
 20
4.0
 30
0.0
  0
VERTEX
  5
F0F
  8
0
 62
     7
 10
3.806
 20
4.9000000000000004
 30
0.0
  0
SEQEND
  5
F10
  8
0
 62
     7
  0
POLYLINE
  5
24F
  8
0
 62
     7
 66
     1
 10
0.0
 20
0.0
 30
0.0
 70
     1
 40
0.0015
 41
0.0015
  0
VERTEX
  5
F11
  8
0
 62
     7
 10
3.80525
 20
4.0
 30
0.0
 42
1.0
  0
VERTEX
  5
F12
  8
0
 62
     7
 10
3.8067500000000001
 20
4.0
 30
0.0
 42
1.0
  0
SEQEND
  5
F13
  8
0
 62
     7
  0
POLYLINE
  5
253
  8
0
 62
     7
 66
     1
 10
0.0
 20
0.0
 30
0.0
 70
     1
 40
0.0015
 41
0.0015
  0
VERTEX
  5
F14
  8
0
 62
     7
 10
3.80525
 20
4.9000000000000004
 30
0.0
 42
1.0
  0
VERTEX
  5
F15
  8
0
 62
     7
 10
3.8067500000000001
 20
4.9000000000000004
 30
0.0
 42
1.0
  0
SEQEND
  5
F16
  8
0
 62
     7
  0
POLYLINE
  5
257
  8
0
 62
     7
 66
     1
 10
0.0
 20
0.0
 30
0.0
 40
0.003
 41
0.003
  0
VERTEX
  5
F17
  8
0
 62
     7
 10
3.7559999999999998
 20
3.0
 30
0.0
  0
VERTEX
  5
F18
  8
0
 62
     7
 10
3.806
 20
4.0
 30
0.0
  0
SEQEND
  5
F19
  8
0
 62
     7
  0
POLYLINE
  5
25B
  8
0
 62
     7
 66
     1
 10
0.0
 20
0.0
 30
0.0
 70
     1
 40
0.0015
 41
0.0015
  0
VERTEX
  5
F1A
  8
0
 62
     7
 10
3.7552500000000002
 20
3.0
 30
0.0
 42
1.0
  0
VERTEX
  5
F1B
  8
0
 62
     7
 10
3.7567499999999989
 20
3.0
 30
0.0
 42
1.0
  0
SEQEND
  5
F1C
  8
0
 62
     7
  0
POLYLINE
  5
25F
  8
0
 62
     7
 66
     1
 10
0.0
 20
0.0
 30
0.0
 70
     1
 40
0.0015
 41
0.0015
  0
VERTEX
  5
F1D
  8
0
 62
     7
 10
3.80525
 20
4.0
 30
0.0
 42
1.0
  0
VERTEX
  5
F1E
  8
0
 62
     7
 10
3.8067500000000001
 20
4.0
 30
0.0
 42
1.0
  0
SEQEND
  5
F1F
  8
0
 62
     7
  0
POLYLINE
  5
263
  8
0
 62
     7
 66
     1
 10
0.0
 20
0.0
 30
0.0
 40
0.003
 41
0.003
  0
VERTEX
  5
F20
  8
0
 62
     7
 10
3.75
 20
3.0
 30
0.0
  0
VERTEX
  5
F21
  8
0
 62
     7
 10
3.7999999999999989
 20
4.0
 30
0.0
  0
SEQEND
  5
F22
  8
0
 62
     7
  0
POLYLINE
  5
267
  8
0
 62
     7
 66
     1
 10
0.0
 20
0.0
 30
0.0
 70
     1
 40
0.0015
 41
0.0015
  0
VERTEX
  5
F23
  8
0
 62
     7
 10
3.7492499999999991
 20
3.0
 30
0.0
 42
1.0
  0
VERTEX
  5
F24
  8
0
 62
     7
 10
3.75075
 20
3.0
 30
0.0
 42
1.0
  0
SEQEND
  5
F25
  8
0
 62
     7
  0
POLYLINE
  5
26B
  8
0
 62
     7
 66
     1
 10
0.0
 20
0.0
 30
0.0
 70
     1
 40
0.0015
 41
0.0015
  0
VERTEX
  5
F26
  8
0
 62
     7
 10
3.7992499999999989
 20
4.0
 30
0.0
 42
1.0
  0
VERTEX
  5
F27
  8
0
 62
     7
 10
3.800749999999999
 20
4.0
 30
0.0
 42
1.0
  0
SEQEND
  5
F28
  8
0
 62
     7
  0
POLYLINE
  5
26F
  8
0
 62
     7
 66
     1
 10
0.0
 20
0.0
 30
0.0
 40
0.003
 41
0.003
  0
VERTEX
  5
F29
  8
0
 62
     7
 10
3.7999999999999989
 20
4.0
 30
0.0
  0
VERTEX
  5
F2A
  8
0
 62
     7
 10
3.7999999999999989
 20
4.9000000000000004
 30
0.0
  0
SEQEND
  5
F2B
  8
0
 62
     7
  0
POLYLINE
  5
273
  8
0
 62
     7
 66
     1
 10
0.0
 20
0.0
 30
0.0
 70
     1
 40
0.0015
 41
0.0015
  0
VERTEX
  5
F2C
  8
0
 62
     7
 10
3.7992499999999989
 20
4.0
 30
0.0
 42
1.0
  0
VERTEX
  5
F2D
  8
0
 62
     7
 10
3.800749999999999
 20
4.0
 30
0.0
 42
1.0
  0
SEQEND
  5
F2E
  8
0
 62
     7
  0
POLYLINE
  5
277
  8
0
 62
     7
 66
     1
 10
0.0
 20
0.0
 30
0.0
 70
     1
 40
0.0015
 41
0.0015
  0
VERTEX
  5
F2F
  8
0
 62
     7
 10
3.7992499999999989
 20
4.9000000000000004
 30
0.0
 42
1.0
  0
VERTEX
  5
F30
  8
0
 62
     7
 10
3.800749999999999
 20
4.9000000000000004
 30
0.0
 42
1.0
  0
SEQEND
  5
F31
  8
0
 62
     7
  0
POLYLINE
  5
27B
  8
0
 62
     7
 66
     1
 10
0.0
 20
0.0
 30
0.0
 40
0.002
 41
0.002
  0
VERTEX
  5
F32
  8
0
 62
     7
 10
3.6659999999999999
 20
3.0
 30
0.0
  0
VERTEX
  5
F33
  8
0
 62
     7
 10
3.7160000000000002
 20
4.0
 30
0.0
  0
SEQEND
  5
F34
  8
0
 62
     7
  0
POLYLINE
  5
27F
  8
0
 62
     7
 66
     1
 10
0.0
 20
0.0
 30
0.0
 70
     1
 40
0.001
 41
0.001
  0
VERTEX
  5
F35
  8
0
 62
     7
 10
3.6655000000000002
 20
3.0
 30
0.0
 42
1.0
  0
VERTEX
  5
F36
  8
0
 62
     7
 10
3.6665000000000001
 20
3.0
 30
0.0
 42
1.0
  0
SEQEND
  5
F37
  8
0
 62
     7
  0
POLYLINE
  5
283
  8
0
 62
     7
 66
     1
 10
0.0
 20
0.0
 30
0.0
 70
     1
 40
0.001
 41
0.001
  0
VERTEX
  5
F38
  8
0
 62
     7
 10
3.7155
 20
4.0
 30
0.0
 42
1.0
  0
VERTEX
  5
F39
  8
0
 62
     7
 10
3.716499999999999
 20
4.0
 30
0.0
 42
1.0
  0
SEQEND
  5
F3A
  8
0
 62
     7
  0
POLYLINE
  5
287
  8
0
 62
     7
 66
     1
 10
0.0
 20
0.0
 30
0.0
 40
0.002
 41
0.002
  0
VERTEX
  5
F3B
  8
0
 62
     7
 10
3.7160000000000002
 20
4.0
 30
0.0
  0
VERTEX
  5
F3C
  8
0
 62
     7
 10
3.7160000000000002
 20
4.9000000000000004
 30
0.0
  0
SEQEND
  5
F3D
  8
0
 62
     7
  0
POLYLINE
  5
28B
  8
0
 62
     7
 66
     1
 10
0.0
 20
0.0
 30
0.0
 70
     1
 40
0.001
 41
0.001
  0
VERTEX
  5
F3E
  8
0
 62
     7
 10
3.7155
 20
4.0
 30
0.0
 42
1.0
  0
VERTEX
  5
F3F
  8
0
 62
     7
 10
3.716499999999999
 20
4.0
 30
0.0
 42
1.0
  0
SEQEND
  5
F40
  8
0
 62
     7
  0
POLYLINE
  5
28F
  8
0
 62
     7
 66
     1
 10
0.0
 20
0.0
 30
0.0
 70
     1
 40
0.001
 41
0.001
  0
VERTEX
  5
F41
  8
0
 62
     7
 10
3.7155
 20
4.9000000000000004
 30
0.0
 42
1.0
  0
VERTEX
  5
F42
  8
0
 62
     7
 10
3.716499999999999
 20
4.9000000000000004
 30
0.0
 42
1.0
  0
SEQEND
  5
F43
  8
0
 62
     7
  0
POLYLINE
  5
293
  8
0
 62
     7
 66
     1
 10
0.0
 20
0.0
 30
0.0
 40
0.002
 41
0.002
  0
VERTEX
  5
F44
  8
0
 62
     7
 10
3.7119999999999989
 20
4.0
 30
0.0
  0
VERTEX
  5
F45
  8
0
 62
     7
 10
3.7119999999999989
 20
4.9000000000000004
 30
0.0
  0
SEQEND
  5
F46
  8
0
 62
     7
  0
POLYLINE
  5
297
  8
0
 62
     7
 66
     1
 10
0.0
 20
0.0
 30
0.0
 70
     1
 40
0.001
 41
0.001
  0
VERTEX
  5
F47
  8
0
 62
     7
 10
3.7115
 20
4.0
 30
0.0
 42
1.0
  0
VERTEX
  5
F48
  8
0
 62
     7
 10
3.712499999999999
 20
4.0
 30
0.0
 42
1.0
  0
SEQEND
  5
F49
  8
0
 62
     7
  0
POLYLINE
  5
29B
  8
0
 62
     7
 66
     1
 10
0.0
 20
0.0
 30
0.0
 70
     1
 40
0.001
 41
0.001
  0
VERTEX
  5
F4A
  8
0
 62
     7
 10
3.7115
 20
4.9000000000000004
 30
0.0
 42
1.0
  0
VERTEX
  5
F4B
  8
0
 62
     7
 10
3.712499999999999
 20
4.9000000000000004
 30
0.0
 42
1.0
  0
SEQEND
  5
F4C
  8
0
 62
     7
  0
POLYLINE
  5
29F
  8
0
 62
     7
 66
     1
 10
0.0
 20
0.0
 30
0.0
 40
0.002
 41
0.002
  0
VERTEX
  5
F4D
  8
0
 62
     7
 10
3.661999999999999
 20
3.0
 30
0.0
  0
VERTEX
  5
F4E
  8
0
 62
     7
 10
3.7119999999999989
 20
4.0
 30
0.0
  0
SEQEND
  5
F4F
  8
0
 62
     7
  0
POLYLINE
  5
2A3
  8
0
 62
     7
 66
     1
 10
0.0
 20
0.0
 30
0.0
 70
     1
 40
0.001
 41
0.001
  0
VERTEX
  5
F50
  8
0
 62
     7
 10
3.6615000000000002
 20
3.0
 30
0.0
 42
1.0
  0
VERTEX
  5
F51
  8
0
 62
     7
 10
3.6625000000000001
 20
3.0
 30
0.0
 42
1.0
  0
SEQEND
  5
F52
  8
0
 62
     7
  0
POLYLINE
  5
2A7
  8
0
 62
     7
 66
     1
 10
0.0
 20
0.0
 30
0.0
 70
     1
 40
0.001
 41
0.001
  0
VERTEX
  5
F53
  8
0
 62
     7
 10
3.7115
 20
4.0
 30
0.0
 42
1.0
  0
VERTEX
  5
F54
  8
0
 62
     7
 10
3.712499999999999
 20
4.0
 30
0.0
 42
1.0
  0
SEQEND
  5
F55
  8
0
 62
     7
  0
POLYLINE
  5
2AB
  8
0
 62
     7
 66
     1
 10
0.0
 20
0.0
 30
0.0
 40
0.002
 41
0.002
  0
VERTEX
  5
F56
  8
0
 62
     7
 10
3.657999999999999
 20
3.0
 30
0.0
  0
VERTEX
  5
F57
  8
0
 62
     7
 10
3.7080000000000002
 20
4.0
 30
0.0
  0
SEQEND
  5
F58
  8
0
 62
     7
  0
POLYLINE
  5
2AF
  8
0
 62
     7
 66
     1
 10
0.0
 20
0.0
 30
0.0
 70
     1
 40
0.001
 41
0.001
  0
VERTEX
  5
F59
  8
0
 62
     7
 10
3.6575000000000002
 20
3.0
 30
0.0
 42
1.0
  0
VERTEX
  5
F5A
  8
0
 62
     7
 10
3.6585000000000001
 20
3.0
 30
0.0
 42
1.0
  0
SEQEND
  5
F5B
  8
0
 62
     7
  0
POLYLINE
  5
2B3
  8
0
 62
     7
 66
     1
 10
0.0
 20
0.0
 30
0.0
 70
     1
 40
0.001
 41
0.001
  0
VERTEX
  5
F5C
  8
0
 62
     7
 10
3.7075
 20
4.0
 30
0.0
 42
1.0
  0
VERTEX
  5
F5D
  8
0
 62
     7
 10
3.708499999999999
 20
4.0
 30
0.0
 42
1.0
  0
SEQEND
  5
F5E
  8
0
 62
     7
  0
POLYLINE
  5
2B7
  8
0
 62
     7
 66
     1
 10
0.0
 20
0.0
 30
0.0
 40
0.002
 41
0.002
  0
VERTEX
  5
F5F
  8
0
 62
     7
 10
3.7080000000000002
 20
4.0
 30
0.0
  0
VERTEX
  5
F60
  8
0
 62
     7
 10
3.7080000000000002
 20
4.9000000000000004
 30
0.0
  0
SEQEND
  5
F61
  8
0
 62
     7
  0
POLYLINE
  5
2BB
  8
0
 62
     7
 66
     1
 10
0.0
 20
0.0
 30
0.0
 70
     1
 40
0.001
 41
0.001
  0
VERTEX
  5
F62
  8
0
 62
     7
 10
3.7075
 20
4.0
 30
0.0
 42
1.0
  0
VERTEX
  5
F63
  8
0
 62
     7
 10
3.708499999999999
 20
4.0
 30
0.0
 42
1.0
  0
SEQEND
  5
F64
  8
0
 62
     7
  0
POLYLINE
  5
2BF
  8
0
 62
     7
 66
     1
 10
0.0
 20
0.0
 30
0.0
 70
     1
 40
0.001
 41
0.001
  0
VERTEX
  5
F65
  8
0
 62
     7
 10
3.7075
 20
4.9000000000000004
 30
0.0
 42
1.0
  0
VERTEX
  5
F66
  8
0
 62
     7
 10
3.708499999999999
 20
4.9000000000000004
 30
0.0
 42
1.0
  0
SEQEND
  5
F67
  8
0
 62
     7
  0
POLYLINE
  5
2C3
  8
0
 62
     7
 66
     1
 10
0.0
 20
0.0
 30
0.0
 40
0.002
 41
0.002
  0
VERTEX
  5
F68
  8
0
 62
     7
 10
3.7039999999999988
 20
4.0
 30
0.0
  0
VERTEX
  5
F69
  8
0
 62
     7
 10
3.7039999999999988
 20
4.9000000000000004
 30
0.0
  0
SEQEND
  5
F6A
  8
0
 62
     7
  0
POLYLINE
  5
2C7
  8
0
 62
     7
 66
     1
 10
0.0
 20
0.0
 30
0.0
 70
     1
 40
0.001
 41
0.001
  0
VERTEX
  5
F6B
  8
0
 62
     7
 10
3.7035
 20
4.0
 30
0.0
 42
1.0
  0
VERTEX
  5
F6C
  8
0
 62
     7
 10
3.704499999999999
 20
4.0
 30
0.0
 42
1.0
  0
SEQEND
  5
F6D
  8
0
 62
     7
  0
POLYLINE
  5
2CB
  8
0
 62
     7
 66
     1
 10
0.0
 20
0.0
 30
0.0
 70
     1
 40
0.001
 41
0.001
  0
VERTEX
  5
F6E
  8
0
 62
     7
 10
3.7035
 20
4.9000000000000004
 30
0.0
 42
1.0
  0
VERTEX
  5
F6F
  8
0
 62
     7
 10
3.704499999999999
 20
4.9000000000000004
 30
0.0
 42
1.0
  0
SEQEND
  5
F70
  8
0
 62
     7
  0
POLYLINE
  5
2CF
  8
0
 62
     7
 66
     1
 10
0.0
 20
0.0
 30
0.0
 40
0.002
 41
0.002
  0
VERTEX
  5
F71
  8
0
 62
     7
 10
3.653999999999999
 20
3.0
 30
0.0
  0
VERTEX
  5
F72
  8
0
 62
     7
 10
3.7039999999999988
 20
4.0
 30
0.0
  0
SEQEND
  5
F73
  8
0
 62
     7
  0
POLYLINE
  5
2D3
  8
0
 62
     7
 66
     1
 10
0.0
 20
0.0
 30
0.0
 70
     1
 40
0.001
 41
0.001
  0
VERTEX
  5
F74
  8
0
 62
     7
 10
3.6535000000000002
 20
3.0
 30
0.0
 42
1.0
  0
VERTEX
  5
F75
  8
0
 62
     7
 10
3.6545000000000001
 20
3.0
 30
0.0
 42
1.0
  0
SEQEND
  5
F76
  8
0
 62
     7
  0
POLYLINE
  5
2D7
  8
0
 62
     7
 66
     1
 10
0.0
 20
0.0
 30
0.0
 70
     1
 40
0.001
 41
0.001
  0
VERTEX
  5
F77
  8
0
 62
     7
 10
3.7035
 20
4.0
 30
0.0
 42
1.0
  0
VERTEX
  5
F78
  8
0
 62
     7
 10
3.704499999999999
 20
4.0
 30
0.0
 42
1.0
  0
SEQEND
  5
F79
  8
0
 62
     7
  0
POLYLINE
  5
2DB
  8
0
 62
     7
 66
     1
 10
0.0
 20
0.0
 30
0.0
 40
0.002
 41
0.002
  0
VERTEX
  5
F7A
  8
0
 62
     7
 10
3.649999999999999
 20
3.0
 30
0.0
  0
VERTEX
  5
F7B
  8
0
 62
     7
 10
3.7000000000000002
 20
4.0
 30
0.0
  0
SEQEND
  5
F7C
  8
0
 62
     7
  0
POLYLINE
  5
2DF
  8
0
 62
     7
 66
     1
 10
0.0
 20
0.0
 30
0.0
 70
     1
 40
0.001
 41
0.001
  0
VERTEX
  5
F7D
  8
0
 62
     7
 10
3.6495000000000002
 20
3.0
 30
0.0
 42
1.0
  0
VERTEX
  5
F7E
  8
0
 62
     7
 10
3.6505000000000001
 20
3.0
 30
0.0
 42
1.0
  0
SEQEND
  5
F7F
  8
0
 62
     7
  0
POLYLINE
  5
2E3
  8
0
 62
     7
 66
     1
 10
0.0
 20
0.0
 30
0.0
 70
     1
 40
0.001
 41
0.001
  0
VERTEX
  5
F80
  8
0
 62
     7
 10
3.6995
 20
4.0
 30
0.0
 42
1.0
  0
VERTEX
  5
F81
  8
0
 62
     7
 10
3.700499999999999
 20
4.0
 30
0.0
 42
1.0
  0
SEQEND
  5
F82
  8
0
 62
     7
  0
POLYLINE
  5
2E7
  8
0
 62
     7
 66
     1
 10
0.0
 20
0.0
 30
0.0
 40
0.002
 41
0.002
  0
VERTEX
  5
F83
  8
0
 62
     7
 10
3.7000000000000002
 20
4.0
 30
0.0
  0
VERTEX
  5
F84
  8
0
 62
     7
 10
3.7000000000000002
 20
4.9000000000000004
 30
0.0
  0
SEQEND
  5
F85
  8
0
 62
     7
  0
POLYLINE
  5
2EB
  8
0
 62
     7
 66
     1
 10
0.0
 20
0.0
 30
0.0
 70
     1
 40
0.001
 41
0.001
  0
VERTEX
  5
F86
  8
0
 62
     7
 10
3.6995
 20
4.0
 30
0.0
 42
1.0
  0
VERTEX
  5
F87
  8
0
 62
     7
 10
3.700499999999999
 20
4.0
 30
0.0
 42
1.0
  0
SEQEND
  5
F88
  8
0
 62
     7
  0
POLYLINE
  5
2EF
  8
0
 62
     7
 66
     1
 10
0.0
 20
0.0
 30
0.0
 70
     1
 40
0.001
 41
0.001
  0
VERTEX
  5
F89
  8
0
 62
     7
 10
3.6995
 20
4.9000000000000004
 30
0.0
 42
1.0
  0
VERTEX
  5
F8A
  8
0
 62
     7
 10
3.700499999999999
 20
4.9000000000000004
 30
0.0
 42
1.0
  0
SEQEND
  5
F8B
  8
0
 62
     7
  0
POLYLINE
  5
2F3
  8
0
 62
     7
 66
     1
 10
0.0
 20
0.0
 30
0.0
 40
0.001
 41
0.001
  0
VERTEX
  5
F8C
  8
0
 62
     7
 10
3.6080000000000001
 20
4.0
 30
0.0
  0
VERTEX
  5
F8D
  8
0
 62
     7
 10
3.6080000000000001
 20
4.9000000000000004
 30
0.0
  0
SEQEND
  5
F8E
  8
0
 62
     7
  0
POLYLINE
  5
2F7
  8
0
 62
     7
 66
     1
 10
0.0
 20
0.0
 30
0.0
 70
     1
 40
0.0005
 41
0.0005
  0
VERTEX
  5
F8F
  8
0
 62
     7
 10
3.6077499999999989
 20
4.0
 30
0.0
 42
1.0
  0
VERTEX
  5
F90
  8
0
 62
     7
 10
3.6082499999999991
 20
4.0
 30
0.0
 42
1.0
  0
SEQEND
  5
F91
  8
0
 62
     7
  0
POLYLINE
  5
2FB
  8
0
 62
     7
 66
     1
 10
0.0
 20
0.0
 30
0.0
 70
     1
 40
0.0005
 41
0.0005
  0
VERTEX
  5
F92
  8
0
 62
     7
 10
3.6077499999999989
 20
4.9000000000000004
 30
0.0
 42
1.0
  0
VERTEX
  5
F93
  8
0
 62
     7
 10
3.6082499999999991
 20
4.9000000000000004
 30
0.0
 42
1.0
  0
SEQEND
  5
F94
  8
0
 62
     7
  0
POLYLINE
  5
2FF
  8
0
 62
     7
 66
     1
 10
0.0
 20
0.0
 30
0.0
 40
0.001
 41
0.001
  0
VERTEX
  5
F95
  8
0
 62
     7
 10
3.5579999999999998
 20
3.0
 30
0.0
  0
VERTEX
  5
F96
  8
0
 62
     7
 10
3.6080000000000001
 20
4.0
 30
0.0
  0
SEQEND
  5
F97
  8
0
 62
     7
  0
POLYLINE
  5
303
  8
0
 62
     7
 66
     1
 10
0.0
 20
0.0
 30
0.0
 70
     1
 40
0.0005
 41
0.0005
  0
VERTEX
  5
F98
  8
0
 62
     7
 10
3.5577499999999991
 20
3.0
 30
0.0
 42
1.0
  0
VERTEX
  5
F99
  8
0
 62
     7
 10
3.5582500000000001
 20
3.0
 30
0.0
 42
1.0
  0
SEQEND
  5
F9A
  8
0
 62
     7
  0
POLYLINE
  5
307
  8
0
 62
     7
 66
     1
 10
0.0
 20
0.0
 30
0.0
 70
     1
 40
0.0005
 41
0.0005
  0
VERTEX
  5
F9B
  8
0
 62
     7
 10
3.6077499999999989
 20
4.0
 30
0.0
 42
1.0
  0
VERTEX
  5
F9C
  8
0
 62
     7
 10
3.6082499999999991
 20
4.0
 30
0.0
 42
1.0
  0
SEQEND
  5
F9D
  8
0
 62
     7
  0
POLYLINE
  5
30B
  8
0
 62
     7
 66
     1
 10
0.0
 20
0.0
 30
0.0
 40
0.001
 41
0.001
  0
VERTEX
  5
F9E
  8
0
 62
     7
 10
3.556
 20
3.0
 30
0.0
  0
VERTEX
  5
F9F
  8
0
 62
     7
 10
3.6059999999999999
 20
4.0
 30
0.0
  0
SEQEND
  5
FA0
  8
0
 62
     7
  0
POLYLINE
  5
30F
  8
0
 62
     7
 66
     1
 10
0.0
 20
0.0
 30
0.0
 70
     1
 40
0.0005
 41
0.0005
  0
VERTEX
  5
FA1
  8
0
 62
     7
 10
3.5557500000000002
 20
3.0
 30
0.0
 42
1.0
  0
VERTEX
  5
FA2
  8
0
 62
     7
 10
3.556249999999999
 20
3.0
 30
0.0
 42
1.0
  0
SEQEND
  5
FA3
  8
0
 62
     7
  0
POLYLINE
  5
313
  8
0
 62
     7
 66
     1
 10
0.0
 20
0.0
 30
0.0
 70
     1
 40
0.0005
 41
0.0005
  0
VERTEX
  5
FA4
  8
0
 62
     7
 10
3.60575
 20
4.0
 30
0.0
 42
1.0
  0
VERTEX
  5
FA5
  8
0
 62
     7
 10
3.6062500000000002
 20
4.0
 30
0.0
 42
1.0
  0
SEQEND
  5
FA6
  8
0
 62
     7
  0
POLYLINE
  5
317
  8
0
 62
     7
 66
     1
 10
0.0
 20
0.0
 30
0.0
 40
0.001
 41
0.001
  0
VERTEX
  5
FA7
  8
0
 62
     7
 10
3.6059999999999999
 20
4.0
 30
0.0
  0
VERTEX
  5
FA8
  8
0
 62
     7
 10
3.6059999999999999
 20
4.9000000000000004
 30
0.0
  0
SEQEND
  5
FA9
  8
0
 62
     7
  0
POLYLINE
  5
31B
  8
0
 62
     7
 66
     1
 10
0.0
 20
0.0
 30
0.0
 70
     1
 40
0.0005
 41
0.0005
  0
VERTEX
  5
FAA
  8
0
 62
     7
 10
3.60575
 20
4.0
 30
0.0
 42
1.0
  0
VERTEX
  5
FAB
  8
0
 62
     7
 10
3.6062500000000002
 20
4.0
 30
0.0
 42
1.0
  0
SEQEND
  5
FAC
  8
0
 62
     7
  0
POLYLINE
  5
31F
  8
0
 62
     7
 66
     1
 10
0.0
 20
0.0
 30
0.0
 70
     1
 40
0.0005
 41
0.0005
  0
VERTEX
  5
FAD
  8
0
 62
     7
 10
3.60575
 20
4.9000000000000004
 30
0.0
 42
1.0
  0
VERTEX
  5
FAE
  8
0
 62
     7
 10
3.6062500000000002
 20
4.9000000000000004
 30
0.0
 42
1.0
  0
SEQEND
  5
FAF
  8
0
 62
     7
  0
POLYLINE
  5
323
  8
0
 62
     7
 66
     1
 10
0.0
 20
0.0
 30
0.0
 40
0.001
 41
0.001
  0
VERTEX
  5
FB0
  8
0
 62
     7
 10
3.6039999999999992
 20
4.0
 30
0.0
  0
VERTEX
  5
FB1
  8
0
 62
     7
 10
3.6039999999999992
 20
4.9000000000000004
 30
0.0
  0
SEQEND
  5
FB2
  8
0
 62
     7
  0
POLYLINE
  5
327
  8
0
 62
     7
 66
     1
 10
0.0
 20
0.0
 30
0.0
 70
     1
 40
0.0005
 41
0.0005
  0
VERTEX
  5
FB3
  8
0
 62
     7
 10
3.6037499999999989
 20
4.0
 30
0.0
 42
1.0
  0
VERTEX
  5
FB4
  8
0
 62
     7
 10
3.6042499999999991
 20
4.0
 30
0.0
 42
1.0
  0
SEQEND
  5
FB5
  8
0
 62
     7
  0
POLYLINE
  5
32B
  8
0
 62
     7
 66
     1
 10
0.0
 20
0.0
 30
0.0
 70
     1
 40
0.0005
 41
0.0005
  0
VERTEX
  5
FB6
  8
0
 62
     7
 10
3.6037499999999989
 20
4.9000000000000004
 30
0.0
 42
1.0
  0
VERTEX
  5
FB7
  8
0
 62
     7
 10
3.6042499999999991
 20
4.9000000000000004
 30
0.0
 42
1.0
  0
SEQEND
  5
FB8
  8
0
 62
     7
  0
POLYLINE
  5
32F
  8
0
 62
     7
 66
     1
 10
0.0
 20
0.0
 30
0.0
 40
0.001
 41
0.001
  0
VERTEX
  5
FB9
  8
0
 62
     7
 10
3.5539999999999989
 20
3.0
 30
0.0
  0
VERTEX
  5
FBA
  8
0
 62
     7
 10
3.6039999999999992
 20
4.0
 30
0.0
  0
SEQEND
  5
FBB
  8
0
 62
     7
  0
POLYLINE
  5
333
  8
0
 62
     7
 66
     1
 10
0.0
 20
0.0
 30
0.0
 70
     1
 40
0.0005
 41
0.0005
  0
VERTEX
  5
FBC
  8
0
 62
     7
 10
3.5537499999999991
 20
3.0
 30
0.0
 42
1.0
  0
VERTEX
  5
FBD
  8
0
 62
     7
 10
3.5542500000000001
 20
3.0
 30
0.0
 42
1.0
  0
SEQEND
  5
FBE
  8
0
 62
     7
  0
POLYLINE
  5
337
  8
0
 62
     7
 66
     1
 10
0.0
 20
0.0
 30
0.0
 70
     1
 40
0.0005
 41
0.0005
  0
VERTEX
  5
FBF
  8
0
 62
     7
 10
3.6037499999999989
 20
4.0
 30
0.0
 42
1.0
  0
VERTEX
  5
FC0
  8
0
 62
     7
 10
3.6042499999999991
 20
4.0
 30
0.0
 42
1.0
  0
SEQEND
  5
FC1
  8
0
 62
     7
  0
POLYLINE
  5
33B
  8
0
 62
     7
 66
     1
 10
0.0
 20
0.0
 30
0.0
 40
0.001
 41
0.001
  0
VERTEX
  5
FC2
  8
0
 62
     7
 10
3.601999999999999
 20
4.0
 30
0.0
  0
VERTEX
  5
FC3
  8
0
 62
     7
 10
3.601999999999999
 20
4.9000000000000004
 30
0.0
  0
SEQEND
  5
FC4
  8
0
 62
     7
  0
POLYLINE
  5
33F
  8
0
 62
     7
 66
     1
 10
0.0
 20
0.0
 30
0.0
 70
     1
 40
0.0005
 41
0.0005
  0
VERTEX
  5
FC5
  8
0
 62
     7
 10
3.60175
 20
4.0
 30
0.0
 42
1.0
  0
VERTEX
  5
FC6
  8
0
 62
     7
 10
3.6022500000000002
 20
4.0
 30
0.0
 42
1.0
  0
SEQEND
  5
FC7
  8
0
 62
     7
  0
POLYLINE
  5
343
  8
0
 62
     7
 66
     1
 10
0.0
 20
0.0
 30
0.0
 70
     1
 40
0.0005
 41
0.0005
  0
VERTEX
  5
FC8
  8
0
 62
     7
 10
3.60175
 20
4.9000000000000004
 30
0.0
 42
1.0
  0
VERTEX
  5
FC9
  8
0
 62
     7
 10
3.6022500000000002
 20
4.9000000000000004
 30
0.0
 42
1.0
  0
SEQEND
  5
FCA
  8
0
 62
     7
  0
POLYLINE
  5
347
  8
0
 62
     7
 66
     1
 10
0.0
 20
0.0
 30
0.0
 40
0.001
 41
0.001
  0
VERTEX
  5
FCB
  8
0
 62
     7
 10
3.552
 20
3.0
 30
0.0
  0
VERTEX
  5
FCC
  8
0
 62
     7
 10
3.601999999999999
 20
4.0
 30
0.0
  0
SEQEND
  5
FCD
  8
0
 62
     7
  0
POLYLINE
  5
34B
  8
0
 62
     7
 66
     1
 10
0.0
 20
0.0
 30
0.0
 70
     1
 40
0.0005
 41
0.0005
  0
VERTEX
  5
FCE
  8
0
 62
     7
 10
3.5517500000000002
 20
3.0
 30
0.0
 42
1.0
  0
VERTEX
  5
FCF
  8
0
 62
     7
 10
3.552249999999999
 20
3.0
 30
0.0
 42
1.0
  0
SEQEND
  5
FD0
  8
0
 62
     7
  0
POLYLINE
  5
34F
  8
0
 62
     7
 66
     1
 10
0.0
 20
0.0
 30
0.0
 70
     1
 40
0.0005
 41
0.0005
  0
VERTEX
  5
FD1
  8
0
 62
     7
 10
3.60175
 20
4.0
 30
0.0
 42
1.0
  0
VERTEX
  5
FD2
  8
0
 62
     7
 10
3.6022500000000002
 20
4.0
 30
0.0
 42
1.0
  0
SEQEND
  5
FD3
  8
0
 62
     7
  0
POLYLINE
  5
353
  8
0
 62
     7
 66
     1
 10
0.0
 20
0.0
 30
0.0
 40
0.001
 41
0.001
  0
VERTEX
  5
FD4
  8
0
 62
     7
 10
3.5499999999999989
 20
3.0
 30
0.0
  0
VERTEX
  5
FD5
  8
0
 62
     7
 10
3.6000000000000001
 20
4.0
 30
0.0
  0
SEQEND
  5
FD6
  8
0
 62
     7
  0
POLYLINE
  5
357
  8
0
 62
     7
 66
     1
 10
0.0
 20
0.0
 30
0.0
 70
     1
 40
0.0005
 41
0.0005
  0
VERTEX
  5
FD7
  8
0
 62
     7
 10
3.5497499999999991
 20
3.0
 30
0.0
 42
1.0
  0
VERTEX
  5
FD8
  8
0
 62
     7
 10
3.5502500000000001
 20
3.0
 30
0.0
 42
1.0
  0
SEQEND
  5
FD9
  8
0
 62
     7
  0
POLYLINE
  5
35B
  8
0
 62
     7
 66
     1
 10
0.0
 20
0.0
 30
0.0
 70
     1
 40
0.0005
 41
0.0005
  0
VERTEX
  5
FDA
  8
0
 62
     7
 10
3.5997499999999989
 20
4.0
 30
0.0
 42
1.0
  0
VERTEX
  5
FDB
  8
0
 62
     7
 10
3.6002499999999991
 20
4.0
 30
0.0
 42
1.0
  0
SEQEND
  5
FDC
  8
0
 62
     7
  0
POLYLINE
  5
35F
  8
0
 62
     7
 66
     1
 10
0.0
 20
0.0
 30
0.0
 40
0.001
 41
0.001
  0
VERTEX
  5
FDD
  8
0
 62
     7
 10
3.6000000000000001
 20
4.0
 30
0.0
  0
VERTEX
  5
FDE
  8
0
 62
     7
 10
3.6000000000000001
 20
4.9000000000000004
 30
0.0
  0
SEQEND
  5
FDF
  8
0
 62
     7
  0
POLYLINE
  5
363
  8
0
 62
     7
 66
     1
 10
0.0
 20
0.0
 30
0.0
 70
     1
 40
0.0005
 41
0.0005
  0
VERTEX
  5
FE0
  8
0
 62
     7
 10
3.5997499999999989
 20
4.0
 30
0.0
 42
1.0
  0
VERTEX
  5
FE1
  8
0
 62
     7
 10
3.6002499999999991
 20
4.0
 30
0.0
 42
1.0
  0
SEQEND
  5
FE2
  8
0
 62
     7
  0
POLYLINE
  5
367
  8
0
 62
     7
 66
     1
 10
0.0
 20
0.0
 30
0.0
 70
     1
 40
0.0005
 41
0.0005
  0
VERTEX
  5
FE3
  8
0
 62
     7
 10
3.5997499999999989
 20
4.9000000000000004
 30
0.0
 42
1.0
  0
VERTEX
  5
FE4
  8
0
 62
     7
 10
3.6002499999999991
 20
4.9000000000000004
 30
0.0
 42
1.0
  0
SEQEND
  5
FE5
  8
0
 62
     7
  0
POLYLINE
  5
36B
  8
0
 62
     7
 66
     1
 10
0.0
 20
0.0
 30
0.0
 40
0.005
 41
0.005
  0
VERTEX
  5
FE6
  8
0
 62
     7
 10
4.0
 20
4.0
 30
0.0
  0
VERTEX
  5
FE7
  8
0
 62
     7
 10
4.0
 20
4.9000000000000004
 30
0.0
  0
SEQEND
  5
FE8
  8
0
 62
     7
  0
POLYLINE
  5
36F
  8
0
 62
     7
 66
     1
 10
0.0
 20
0.0
 30
0.0
 70
     1
 40
0.0025
 41
0.0025
  0
VERTEX
  5
FE9
  8
0
 62
     7
 10
3.9987499999999989
 20
4.0
 30
0.0
 42
1.0
  0
VERTEX
  5
FEA
  8
0
 62
     7
 10
4.0012499999999989
 20
4.0
 30
0.0
 42
1.0
  0
SEQEND
  5
FEB
  8
0
 62
     7
  0
POLYLINE
  5
373
  8
0
 62
     7
 66
     1
 10
0.0
 20
0.0
 30
0.0
 70
     1
 40
0.0025
 41
0.0025
  0
VERTEX
  5
FEC
  8
0
 62
     7
 10
3.9987499999999989
 20
4.9000000000000004
 30
0.0
 42
1.0
  0
VERTEX
  5
FED
  8
0
 62
     7
 10
4.0012499999999989
 20
4.9000000000000004
 30
0.0
 42
1.0
  0
SEQEND
  5
FEE
  8
0
 62
     7
  0
POLYLINE
  5
377
  8
0
 62
     7
 66
     1
 10
0.0
 20
0.0
 30
0.0
 40
0.004
 41
0.004
  0
VERTEX
  5
FEF
  8
0
 62
     7
 10
3.8999999999999999
 20
4.0
 30
0.0
  0
VERTEX
  5
FF0
  8
0
 62
     7
 10
3.8999999999999999
 20
4.9000000000000004
 30
0.0
  0
SEQEND
  5
FF1
  8
0
 62
     7
  0
POLYLINE
  5
37B
  8
0
 62
     7
 66
     1
 10
0.0
 20
0.0
 30
0.0
 70
     1
 40
0.002
 41
0.002
  0
VERTEX
  5
FF2
  8
0
 62
     7
 10
3.8989999999999991
 20
4.0
 30
0.0
 42
1.0
  0
VERTEX
  5
FF3
  8
0
 62
     7
 10
3.9009999999999998
 20
4.0
 30
0.0
 42
1.0
  0
SEQEND
  5
FF4
  8
0
 62
     7
  0
POLYLINE
  5
37F
  8
0
 62
     7
 66
     1
 10
0.0
 20
0.0
 30
0.0
 70
     1
 40
0.002
 41
0.002
  0
VERTEX
  5
FF5
  8
0
 62
     7
 10
3.8989999999999991
 20
4.9000000000000004
 30
0.0
 42
1.0
  0
VERTEX
  5
FF6
  8
0
 62
     7
 10
3.9009999999999998
 20
4.9000000000000004
 30
0.0
 42
1.0
  0
SEQEND
  5
FF7
  8
0
 62
     7
  0
POLYLINE
  5
383
  8
0
 62
     7
 66
     1
 10
0.0
 20
0.0
 30
0.0
 40
0.004
 41
0.004
  0
VERTEX
  5
FF8
  8
0
 62
     7
 10
3.8500000000000001
 20
3.0
 30
0.0
  0
VERTEX
  5
FF9
  8
0
 62
     7
 10
3.8999999999999999
 20
4.0
 30
0.0
  0
SEQEND
  5
FFA
  8
0
 62
     7
  0
POLYLINE
  5
387
  8
0
 62
     7
 66
     1
 10
0.0
 20
0.0
 30
0.0
 70
     1
 40
0.002
 41
0.002
  0
VERTEX
  5
FFB
  8
0
 62
     7
 10
3.8489999999999989
 20
3.0
 30
0.0
 42
1.0
  0
VERTEX
  5
FFC
  8
0
 62
     7
 10
3.851
 20
3.0
 30
0.0
 42
1.0
  0
SEQEND
  5
FFD
  8
0
 62
     7
  0
POLYLINE
  5
38B
  8
0
 62
     7
 66
     1
 10
0.0
 20
0.0
 30
0.0
 70
     1
 40
0.002
 41
0.002
  0
VERTEX
  5
FFE
  8
0
 62
     7
 10
3.8989999999999991
 20
4.0
 30
0.0
 42
1.0
  0
VERTEX
  5
FFF
  8
0
 62
     7
 10
3.9009999999999998
 20
4.0
 30
0.0
 42
1.0
  0
SEQEND
  5
1000
  8
0
 62
     7
  0
POLYLINE
  5
38F
  8
0
 62
     7
 66
     1
 10
0.0
 20
0.0
 30
0.0
 40
0.004
 41
0.004
  0
VERTEX
  5
1001
  8
0
 62
     7
 10
3.907999999999999
 20
4.0
 30
0.0
  0
VERTEX
  5
1002
  8
0
 62
     7
 10
3.907999999999999
 20
4.9000000000000004
 30
0.0
  0
SEQEND
  5
1003
  8
0
 62
     7
  0
POLYLINE
  5
393
  8
0
 62
     7
 66
     1
 10
0.0
 20
0.0
 30
0.0
 70
     1
 40
0.002
 41
0.002
  0
VERTEX
  5
1004
  8
0
 62
     7
 10
3.907
 20
4.0
 30
0.0
 42
1.0
  0
VERTEX
  5
1005
  8
0
 62
     7
 10
3.9089999999999989
 20
4.0
 30
0.0
 42
1.0
  0
SEQEND
  5
1006
  8
0
 62
     7
  0
POLYLINE
  5
397
  8
0
 62
     7
 66
     1
 10
0.0
 20
0.0
 30
0.0
 70
     1
 40
0.002
 41
0.002
  0
VERTEX
  5
1007
  8
0
 62
     7
 10
3.907
 20
4.9000000000000004
 30
0.0
 42
1.0
  0
VERTEX
  5
1008
  8
0
 62
     7
 10
3.9089999999999989
 20
4.9000000000000004
 30
0.0
 42
1.0
  0
SEQEND
  5
1009
  8
0
 62
     7
  0
POLYLINE
  5
39B
  8
0
 62
     7
 66
     1
 10
0.0
 20
0.0
 30
0.0
 40
0.004
 41
0.004
  0
VERTEX
  5
100A
  8
0
 62
     7
 10
3.8580000000000001
 20
3.0
 30
0.0
  0
VERTEX
  5
100B
  8
0
 62
     7
 10
3.907999999999999
 20
4.0
 30
0.0
  0
SEQEND
  5
100C
  8
0
 62
     7
  0
POLYLINE
  5
39F
  8
0
 62
     7
 66
     1
 10
0.0
 20
0.0
 30
0.0
 70
     1
 40
0.002
 41
0.002
  0
VERTEX
  5
100D
  8
0
 62
     7
 10
3.8569999999999989
 20
3.0
 30
0.0
 42
1.0
  0
VERTEX
  5
100E
  8
0
 62
     7
 10
3.8589999999999991
 20
3.0
 30
0.0
 42
1.0
  0
SEQEND
  5
100F
  8
0
 62
     7
  0
POLYLINE
  5
3A3
  8
0
 62
     7
 66
     1
 10
0.0
 20
0.0
 30
0.0
 70
     1
 40
0.002
 41
0.002
  0
VERTEX
  5
1010
  8
0
 62
     7
 10
3.907
 20
4.0
 30
0.0
 42
1.0
  0
VERTEX
  5
1011
  8
0
 62
     7
 10
3.9089999999999989
 20
4.0
 30
0.0
 42
1.0
  0
SEQEND
  5
1012
  8
0
 62
     7
  0
POLYLINE
  5
3A7
  8
0
 62
     7
 66
     1
 10
0.0
 20
0.0
 30
0.0
 40
0.004
 41
0.004
  0
VERTEX
  5
1013
  8
0
 62
     7
 10
3.8660000000000001
 20
3.0
 30
0.0
  0
VERTEX
  5
1014
  8
0
 62
     7
 10
3.9159999999999999
 20
4.0
 30
0.0
  0
SEQEND
  5
1015
  8
0
 62
     7
  0
POLYLINE
  5
3AB
  8
0
 62
     7
 66
     1
 10
0.0
 20
0.0
 30
0.0
 70
     1
 40
0.002
 41
0.002
  0
VERTEX
  5
1016
  8
0
 62
     7
 10
3.8650000000000002
 20
3.0
 30
0.0
 42
1.0
  0
VERTEX
  5
1017
  8
0
 62
     7
 10
3.8669999999999991
 20
3.0
 30
0.0
 42
1.0
  0
SEQEND
  5
1018
  8
0
 62
     7
  0
POLYLINE
  5
3AF
  8
0
 62
     7
 66
     1
 10
0.0
 20
0.0
 30
0.0
 70
     1
 40
0.002
 41
0.002
  0
VERTEX
  5
1019
  8
0
 62
     7
 10
3.915
 20
4.0
 30
0.0
 42
1.0
  0
VERTEX
  5
101A
  8
0
 62
     7
 10
3.9169999999999989
 20
4.0
 30
0.0
 42
1.0
  0
SEQEND
  5
101B
  8
0
 62
     7
  0
POLYLINE
  5
3B3
  8
0
 62
     7
 66
     1
 10
0.0
 20
0.0
 30
0.0
 40
0.004
 41
0.004
  0
VERTEX
  5
101C
  8
0
 62
     7
 10
3.9159999999999999
 20
4.0
 30
0.0
  0
VERTEX
  5
101D
  8
0
 62
     7
 10
3.9159999999999999
 20
4.9000000000000004
 30
0.0
  0
SEQEND
  5
101E
  8
0
 62
     7
  0
POLYLINE
  5
3B7
  8
0
 62
     7
 66
     1
 10
0.0
 20
0.0
 30
0.0
 70
     1
 40
0.002
 41
0.002
  0
VERTEX
  5
101F
  8
0
 62
     7
 10
3.915
 20
4.0
 30
0.0
 42
1.0
  0
VERTEX
  5
1020
  8
0
 62
     7
 10
3.9169999999999989
 20
4.0
 30
0.0
 42
1.0
  0
SEQEND
  5
1021
  8
0
 62
     7
  0
POLYLINE
  5
3BB
  8
0
 62
     7
 66
     1
 10
0.0
 20
0.0
 30
0.0
 70
     1
 40
0.002
 41
0.002
  0
VERTEX
  5
1022
  8
0
 62
     7
 10
3.915
 20
4.9000000000000004
 30
0.0
 42
1.0
  0
VERTEX
  5
1023
  8
0
 62
     7
 10
3.9169999999999989
 20
4.9000000000000004
 30
0.0
 42
1.0
  0
SEQEND
  5
1024
  8
0
 62
     7
  0
POLYLINE
  5
3BF
  8
0
 62
     7
 66
     1
 10
0.0
 20
0.0
 30
0.0
 40
0.004
 41
0.004
  0
VERTEX
  5
1025
  8
0
 62
     7
 10
3.923999999999999
 20
4.0
 30
0.0
  0
VERTEX
  5
1026
  8
0
 62
     7
 10
3.923999999999999
 20
4.9000000000000004
 30
0.0
  0
SEQEND
  5
1027
  8
0
 62
     7
  0
POLYLINE
  5
3C3
  8
0
 62
     7
 66
     1
 10
0.0
 20
0.0
 30
0.0
 70
     1
 40
0.002
 41
0.002
  0
VERTEX
  5
1028
  8
0
 62
     7
 10
3.923
 20
4.0
 30
0.0
 42
1.0
  0
VERTEX
  5
1029
  8
0
 62
     7
 10
3.9249999999999989
 20
4.0
 30
0.0
 42
1.0
  0
SEQEND
  5
102A
  8
0
 62
     7
  0
POLYLINE
  5
3C7
  8
0
 62
     7
 66
     1
 10
0.0
 20
0.0
 30
0.0
 70
     1
 40
0.002
 41
0.002
  0
VERTEX
  5
102B
  8
0
 62
     7
 10
3.923
 20
4.9000000000000004
 30
0.0
 42
1.0
  0
VERTEX
  5
102C
  8
0
 62
     7
 10
3.9249999999999989
 20
4.9000000000000004
 30
0.0
 42
1.0
  0
SEQEND
  5
102D
  8
0
 62
     7
  0
POLYLINE
  5
3CB
  8
0
 62
     7
 66
     1
 10
0.0
 20
0.0
 30
0.0
 40
0.004
 41
0.004
  0
VERTEX
  5
102E
  8
0
 62
     7
 10
3.8739999999999992
 20
3.0
 30
0.0
  0
VERTEX
  5
102F
  8
0
 62
     7
 10
3.923999999999999
 20
4.0
 30
0.0
  0
SEQEND
  5
1030
  8
0
 62
     7
  0
POLYLINE
  5
3CF
  8
0
 62
     7
 66
     1
 10
0.0
 20
0.0
 30
0.0
 70
     1
 40
0.002
 41
0.002
  0
VERTEX
  5
1031
  8
0
 62
     7
 10
3.8730000000000002
 20
3.0
 30
0.0
 42
1.0
  0
VERTEX
  5
1032
  8
0
 62
     7
 10
3.875
 20
3.0
 30
0.0
 42
1.0
  0
SEQEND
  5
1033
  8
0
 62
     7
  0
POLYLINE
  5
3D3
  8
0
 62
     7
 66
     1
 10
0.0
 20
0.0
 30
0.0
 70
     1
 40
0.002
 41
0.002
  0
VERTEX
  5
1034
  8
0
 62
     7
 10
3.923
 20
4.0
 30
0.0
 42
1.0
  0
VERTEX
  5
1035
  8
0
 62
     7
 10
3.9249999999999989
 20
4.0
 30
0.0
 42
1.0
  0
SEQEND
  5
1036
  8
0
 62
     7
  0
POLYLINE
  5
3D7
  8
0
 62
     7
 66
     1
 10
0.0
 20
0.0
 30
0.0
 40
0.004
 41
0.004
  0
VERTEX
  5
1037
  8
0
 62
     7
 10
3.8819999999999988
 20
3.0
 30
0.0
  0
VERTEX
  5
1038
  8
0
 62
     7
 10
3.9319999999999999
 20
4.0
 30
0.0
  0
SEQEND
  5
1039
  8
0
 62
     7
  0
POLYLINE
  5
3DB
  8
0
 62
     7
 66
     1
 10
0.0
 20
0.0
 30
0.0
 70
     1
 40
0.002
 41
0.002
  0
VERTEX
  5
103A
  8
0
 62
     7
 10
3.8809999999999998
 20
3.0
 30
0.0
 42
1.0
  0
VERTEX
  5
103B
  8
0
 62
     7
 10
3.883
 20
3.0
 30
0.0
 42
1.0
  0
SEQEND
  5
103C
  8
0
 62
     7
  0
POLYLINE
  5
3DF
  8
0
 62
     7
 66
     1
 10
0.0
 20
0.0
 30
0.0
 70
     1
 40
0.002
 41
0.002
  0
VERTEX
  5
103D
  8
0
 62
     7
 10
3.931
 20
4.0
 30
0.0
 42
1.0
  0
VERTEX
  5
103E
  8
0
 62
     7
 10
3.9329999999999998
 20
4.0
 30
0.0
 42
1.0
  0
SEQEND
  5
103F
  8
0
 62
     7
  0
POLYLINE
  5
3E3
  8
0
 62
     7
 66
     1
 10
0.0
 20
0.0
 30
0.0
 40
0.004
 41
0.004
  0
VERTEX
  5
1040
  8
0
 62
     7
 10
3.9319999999999999
 20
4.0
 30
0.0
  0
VERTEX
  5
1041
  8
0
 62
     7
 10
3.9319999999999999
 20
4.9000000000000004
 30
0.0
  0
SEQEND
  5
1042
  8
0
 62
     7
  0
POLYLINE
  5
3E7
  8
0
 62
     7
 66
     1
 10
0.0
 20
0.0
 30
0.0
 70
     1
 40
0.002
 41
0.002
  0
VERTEX
  5
1043
  8
0
 62
     7
 10
3.931
 20
4.0
 30
0.0
 42
1.0
  0
VERTEX
  5
1044
  8
0
 62
     7
 10
3.9329999999999998
 20
4.0
 30
0.0
 42
1.0
  0
SEQEND
  5
1045
  8
0
 62
     7
  0
POLYLINE
  5
3EB
  8
0
 62
     7
 66
     1
 10
0.0
 20
0.0
 30
0.0
 70
     1
 40
0.002
 41
0.002
  0
VERTEX
  5
1046
  8
0
 62
     7
 10
3.931
 20
4.9000000000000004
 30
0.0
 42
1.0
  0
VERTEX
  5
1047
  8
0
 62
     7
 10
3.9329999999999998
 20
4.9000000000000004
 30
0.0
 42
1.0
  0
SEQEND
  5
1048
  8
0
 62
     7
  0
POLYLINE
  5
3EF
  8
0
 62
     7
 66
     1
 10
0.0
 20
0.0
 30
0.0
 40
0.005
 41
0.005
  0
VERTEX
  5
1049
  8
0
 62
     7
 10
3.9500000000000002
 20
3.0
 30
0.0
  0
VERTEX
  5
104A
  8
0
 62
     7
 10
4.0
 20
4.0
 30
0.0
  0
SEQEND
  5
104B
  8
0
 62
     7
  0
POLYLINE
  5
3F3
  8
0
 62
     7
 66
     1
 10
0.0
 20
0.0
 30
0.0
 70
     1
 40
0.0025
 41
0.0025
  0
VERTEX
  5
104C
  8
0
 62
     7
 10
3.94875
 20
3.0
 30
0.0
 42
1.0
  0
VERTEX
  5
104D
  8
0
 62
     7
 10
3.951249999999999
 20
3.0
 30
0.0
 42
1.0
  0
SEQEND
  5
104E
  8
0
 62
     7
  0
POLYLINE
  5
3F7
  8
0
 62
     7
 66
     1
 10
0.0
 20
0.0
 30
0.0
 70
     1
 40
0.0025
 41
0.0025
  0
VERTEX
  5
104F
  8
0
 62
     7
 10
3.9987499999999989
 20
4.0
 30
0.0
 42
1.0
  0
VERTEX
  5
1050
  8
0
 62
     7
 10
4.0012499999999989
 20
4.0
 30
0.0
 42
1.0
  0
SEQEND
  5
1051
  8
0
 62
     7
  0
POLYLINE
  5
3FB
  8
0
 62
     7
 66
     1
 10
0.0
 20
0.0
 30
0.0
 40
0.005
 41
0.005
  0
VERTEX
  5
1052
  8
0
 62
     7
 10
4.0099999999999989
 20
4.0
 30
0.0
  0
VERTEX
  5
1053
  8
0
 62
     7
 10
4.0099999999999989
 20
4.9000000000000004
 30
0.0
  0
SEQEND
  5
1054
  8
0
 62
     7
  0
POLYLINE
  5
3FF
  8
0
 62
     7
 66
     1
 10
0.0
 20
0.0
 30
0.0
 70
     1
 40
0.0025
 41
0.0025
  0
VERTEX
  5
1055
  8
0
 62
     7
 10
4.00875
 20
4.0
 30
0.0
 42
1.0
  0
VERTEX
  5
1056
  8
0
 62
     7
 10
4.0112500000000004
 20
4.0
 30
0.0
 42
1.0
  0
SEQEND
  5
1057
  8
0
 62
     7
  0
POLYLINE
  5
403
  8
0
 62
     7
 66
     1
 10
0.0
 20
0.0
 30
0.0
 70
     1
 40
0.0025
 41
0.0025
  0
VERTEX
  5
1058
  8
0
 62
     7
 10
4.00875
 20
4.9000000000000004
 30
0.0
 42
1.0
  0
VERTEX
  5
1059
  8
0
 62
     7
 10
4.0112500000000004
 20
4.9000000000000004
 30
0.0
 42
1.0
  0
SEQEND
  5
105A
  8
0
 62
     7
  0
POLYLINE
  5
407
  8
0
 62
     7
 66
     1
 10
0.0
 20
0.0
 30
0.0
 40
0.005
 41
0.005
  0
VERTEX
  5
105B
  8
0
 62
     7
 10
3.9599999999999991
 20
3.0
 30
0.0
  0
VERTEX
  5
105C
  8
0
 62
     7
 10
4.0099999999999989
 20
4.0
 30
0.0
  0
SEQEND
  5
105D
  8
0
 62
     7
  0
POLYLINE
  5
40B
  8
0
 62
     7
 66
     1
 10
0.0
 20
0.0
 30
0.0
 70
     1
 40
0.0025
 41
0.0025
  0
VERTEX
  5
105E
  8
0
 62
     7
 10
3.9587500000000002
 20
3.0
 30
0.0
 42
1.0
  0
VERTEX
  5
105F
  8
0
 62
     7
 10
3.9612500000000002
 20
3.0
 30
0.0
 42
1.0
  0
SEQEND
  5
1060
  8
0
 62
     7
  0
POLYLINE
  5
40F
  8
0
 62
     7
 66
     1
 10
0.0
 20
0.0
 30
0.0
 70
     1
 40
0.0025
 41
0.0025
  0
VERTEX
  5
1061
  8
0
 62
     7
 10
4.00875
 20
4.0
 30
0.0
 42
1.0
  0
VERTEX
  5
1062
  8
0
 62
     7
 10
4.0112500000000004
 20
4.0
 30
0.0
 42
1.0
  0
SEQEND
  5
1063
  8
0
 62
     7
  0
POLYLINE
  5
413
  8
0
 62
     7
 66
     1
 10
0.0
 20
0.0
 30
0.0
 40
0.005
 41
0.005
  0
VERTEX
  5
1064
  8
0
 62
     7
 10
3.9700000000000002
 20
3.0
 30
0.0
  0
VERTEX
  5
1065
  8
0
 62
     7
 10
4.0199999999999987
 20
4.0
 30
0.0
  0
SEQEND
  5
1066
  8
0
 62
     7
  0
POLYLINE
  5
417
  8
0
 62
     7
 66
     1
 10
0.0
 20
0.0
 30
0.0
 70
     1
 40
0.0025
 41
0.0025
  0
VERTEX
  5
1067
  8
0
 62
     7
 10
3.96875
 20
3.0
 30
0.0
 42
1.0
  0
VERTEX
  5
1068
  8
0
 62
     7
 10
3.9712499999999991
 20
3.0
 30
0.0
 42
1.0
  0
SEQEND
  5
1069
  8
0
 62
     7
  0
POLYLINE
  5
41B
  8
0
 62
     7
 66
     1
 10
0.0
 20
0.0
 30
0.0
 70
     1
 40
0.0025
 41
0.0025
  0
VERTEX
  5
106A
  8
0
 62
     7
 10
4.0187499999999989
 20
4.0
 30
0.0
 42
1.0
  0
VERTEX
  5
106B
  8
0
 62
     7
 10
4.0212500000000002
 20
4.0
 30
0.0
 42
1.0
  0
SEQEND
  5
106C
  8
0
 62
     7
  0
POLYLINE
  5
41F
  8
0
 62
     7
 66
     1
 10
0.0
 20
0.0
 30
0.0
 40
0.005
 41
0.005
  0
VERTEX
  5
106D
  8
0
 62
     7
 10
4.0199999999999987
 20
4.0
 30
0.0
  0
VERTEX
  5
106E
  8
0
 62
     7
 10
4.0199999999999987
 20
4.9000000000000004
 30
0.0
  0
SEQEND
  5
106F
  8
0
 62
     7
  0
POLYLINE
  5
423
  8
0
 62
     7
 66
     1
 10
0.0
 20
0.0
 30
0.0
 70
     1
 40
0.0025
 41
0.0025
  0
VERTEX
  5
1070
  8
0
 62
     7
 10
4.0187499999999989
 20
4.0
 30
0.0
 42
1.0
  0
VERTEX
  5
1071
  8
0
 62
     7
 10
4.0212500000000002
 20
4.0
 30
0.0
 42
1.0
  0
SEQEND
  5
1072
  8
0
 62
     7
  0
POLYLINE
  5
427
  8
0
 62
     7
 66
     1
 10
0.0
 20
0.0
 30
0.0
 70
     1
 40
0.0025
 41
0.0025
  0
VERTEX
  5
1073
  8
0
 62
     7
 10
4.0187499999999989
 20
4.9000000000000004
 30
0.0
 42
1.0
  0
VERTEX
  5
1074
  8
0
 62
     7
 10
4.0212500000000002
 20
4.9000000000000004
 30
0.0
 42
1.0
  0
SEQEND
  5
1075
  8
0
 62
     7
  0
POLYLINE
  5
42B
  8
0
 62
     7
 66
     1
 10
0.0
 20
0.0
 30
0.0
 40
0.005
 41
0.005
  0
VERTEX
  5
1076
  8
0
 62
     7
 10
4.0300000000000002
 20
4.0
 30
0.0
  0
VERTEX
  5
1077
  8
0
 62
     7
 10
4.0300000000000002
 20
4.9000000000000004
 30
0.0
  0
SEQEND
  5
1078
  8
0
 62
     7
  0
POLYLINE
  5
42F
  8
0
 62
     7
 66
     1
 10
0.0
 20
0.0
 30
0.0
 70
     1
 40
0.0025
 41
0.0025
  0
VERTEX
  5
1079
  8
0
 62
     7
 10
4.0287499999999987
 20
4.0
 30
0.0
 42
1.0
  0
VERTEX
  5
107A
  8
0
 62
     7
 10
4.03125
 20
4.0
 30
0.0
 42
1.0
  0
SEQEND
  5
107B
  8
0
 62
     7
  0
POLYLINE
  5
433
  8
0
 62
     7
 66
     1
 10
0.0
 20
0.0
 30
0.0
 70
     1
 40
0.0025
 41
0.0025
  0
VERTEX
  5
107C
  8
0
 62
     7
 10
4.0287499999999987
 20
4.9000000000000004
 30
0.0
 42
1.0
  0
VERTEX
  5
107D
  8
0
 62
     7
 10
4.03125
 20
4.9000000000000004
 30
0.0
 42
1.0
  0
SEQEND
  5
107E
  8
0
 62
     7
  0
POLYLINE
  5
437
  8
0
 62
     7
 66
     1
 10
0.0
 20
0.0
 30
0.0
 40
0.005
 41
0.005
  0
VERTEX
  5
107F
  8
0
 62
     7
 10
3.98
 20
3.0
 30
0.0
  0
VERTEX
  5
1080
  8
0
 62
     7
 10
4.0300000000000002
 20
4.0
 30
0.0
  0
SEQEND
  5
1081
  8
0
 62
     7
  0
POLYLINE
  5
43B
  8
0
 62
     7
 66
     1
 10
0.0
 20
0.0
 30
0.0
 70
     1
 40
0.0025
 41
0.0025
  0
VERTEX
  5
1082
  8
0
 62
     7
 10
3.9787499999999989
 20
3.0
 30
0.0
 42
1.0
  0
VERTEX
  5
1083
  8
0
 62
     7
 10
3.9812500000000002
 20
3.0
 30
0.0
 42
1.0
  0
SEQEND
  5
1084
  8
0
 62
     7
  0
POLYLINE
  5
43F
  8
0
 62
     7
 66
     1
 10
0.0
 20
0.0
 30
0.0
 70
     1
 40
0.0025
 41
0.0025
  0
VERTEX
  5
1085
  8
0
 62
     7
 10
4.0287499999999987
 20
4.0
 30
0.0
 42
1.0
  0
VERTEX
  5
1086
  8
0
 62
     7
 10
4.03125
 20
4.0
 30
0.0
 42
1.0
  0
SEQEND
  5
1087
  8
0
 62
     7
  0
POLYLINE
  5
443
  8
0
 62
     7
 66
     1
 10
0.0
 20
0.0
 30
0.0
 40
0.005
 41
0.005
  0
VERTEX
  5
1088
  8
0
 62
     7
 10
3.9900000000000002
 20
3.0
 30
0.0
  0
VERTEX
  5
1089
  8
0
 62
     7
 10
4.04
 20
4.0
 30
0.0
  0
SEQEND
  5
108A
  8
0
 62
     7
  0
POLYLINE
  5
447
  8
0
 62
     7
 66
     1
 10
0.0
 20
0.0
 30
0.0
 70
     1
 40
0.0025
 41
0.0025
  0
VERTEX
  5
108B
  8
0
 62
     7
 10
3.9887499999999991
 20
3.0
 30
0.0
 42
1.0
  0
VERTEX
  5
108C
  8
0
 62
     7
 10
3.9912499999999991
 20
3.0
 30
0.0
 42
1.0
  0
SEQEND
  5
108D
  8
0
 62
     7
  0
POLYLINE
  5
44B
  8
0
 62
     7
 66
     1
 10
0.0
 20
0.0
 30
0.0
 70
     1
 40
0.0025
 41
0.0025
  0
VERTEX
  5
108E
  8
0
 62
     7
 10
4.0387500000000003
 20
4.0
 30
0.0
 42
1.0
  0
VERTEX
  5
108F
  8
0
 62
     7
 10
4.0412499999999989
 20
4.0
 30
0.0
 42
1.0
  0
SEQEND
  5
1090
  8
0
 62
     7
  0
POLYLINE
  5
44F
  8
0
 62
     7
 66
     1
 10
0.0
 20
0.0
 30
0.0
 40
0.005
 41
0.005
  0
VERTEX
  5
1091
  8
0
 62
     7
 10
4.04
 20
4.0
 30
0.0
  0
VERTEX
  5
1092
  8
0
 62
     7
 10
4.04
 20
4.9000000000000004
 30
0.0
  0
SEQEND
  5
1093
  8
0
 62
     7
  0
POLYLINE
  5
453
  8
0
 62
     7
 66
     1
 10
0.0
 20
0.0
 30
0.0
 70
     1
 40
0.0025
 41
0.0025
  0
VERTEX
  5
1094
  8
0
 62
     7
 10
4.0387500000000003
 20
4.0
 30
0.0
 42
1.0
  0
VERTEX
  5
1095
  8
0
 62
     7
 10
4.0412499999999989
 20
4.0
 30
0.0
 42
1.0
  0
SEQEND
  5
1096
  8
0
 62
     7
  0
POLYLINE
  5
457
  8
0
 62
     7
 66
     1
 10
0.0
 20
0.0
 30
0.0
 70
     1
 40
0.0025
 41
0.0025
  0
VERTEX
  5
1097
  8
0
 62
     7
 10
4.0387500000000003
 20
4.9000000000000004
 30
0.0
 42
1.0
  0
VERTEX
  5
1098
  8
0
 62
     7
 10
4.0412499999999989
 20
4.9000000000000004
 30
0.0
 42
1.0
  0
SEQEND
  5
1099
  8
0
 62
     7
  0
POLYLINE
  5
45B
  8
0
 62
     7
 66
     1
 10
0.0
 20
0.0
 30
0.0
 40
0.01
 41
0.01
  0
VERTEX
  5
109A
  8
0
 62
     7
 10
4.5499999999999989
 20
3.0
 30
0.0
  0
VERTEX
  5
109B
  8
0
 62
     7
 10
4.5999999999999988
 20
4.0
 30
0.0
  0
SEQEND
  5
109C
  8
0
 62
     7
  0
POLYLINE
  5
45F
  8
0
 62
     7
 66
     1
 10
0.0
 20
0.0
 30
0.0
 70
     1
 40
0.005
 41
0.005
  0
VERTEX
  5
109D
  8
0
 62
     7
 10
4.5475000000000003
 20
3.0
 30
0.0
 42
1.0
  0
VERTEX
  5
109E
  8
0
 62
     7
 10
4.5525000000000002
 20
3.0
 30
0.0
 42
1.0
  0
SEQEND
  5
109F
  8
0
 62
     7
  0
POLYLINE
  5
463
  8
0
 62
     7
 66
     1
 10
0.0
 20
0.0
 30
0.0
 70
     1
 40
0.005
 41
0.005
  0
VERTEX
  5
10A0
  8
0
 62
     7
 10
4.5975000000000001
 20
4.0
 30
0.0
 42
1.0
  0
VERTEX
  5
10A1
  8
0
 62
     7
 10
4.6025
 20
4.0
 30
0.0
 42
1.0
  0
SEQEND
  5
10A2
  8
0
 62
     7
  0
POLYLINE
  5
467
  8
0
 62
     7
 66
     1
 10
0.0
 20
0.0
 30
0.0
 40
0.01
 41
0.01
  0
VERTEX
  5
10A3
  8
0
 62
     7
 10
4.6799999999999988
 20
4.0
 30
0.0
  0
VERTEX
  5
10A4
  8
0
 62
     7
 10
4.6799999999999988
 20
4.9000000000000004
 30
0.0
  0
SEQEND
  5
10A5
  8
0
 62
     7
  0
POLYLINE
  5
46B
  8
0
 62
     7
 66
     1
 10
0.0
 20
0.0
 30
0.0
 70
     1
 40
0.005
 41
0.005
  0
VERTEX
  5
10A6
  8
0
 62
     7
 10
4.6775000000000002
 20
4.0
 30
0.0
 42
1.0
  0
VERTEX
  5
10A7
  8
0
 62
     7
 10
4.6825000000000001
 20
4.0
 30
0.0
 42
1.0
  0
SEQEND
  5
10A8
  8
0
 62
     7
  0
POLYLINE
  5
46F
  8
0
 62
     7
 66
     1
 10
0.0
 20
0.0
 30
0.0
 70
     1
 40
0.005
 41
0.005
  0
VERTEX
  5
10A9
  8
0
 62
     7
 10
4.6775000000000002
 20
4.9000000000000004
 30
0.0
 42
1.0
  0
VERTEX
  5
10AA
  8
0
 62
     7
 10
4.6825000000000001
 20
4.9000000000000004
 30
0.0
 42
1.0
  0
SEQEND
  5
10AB
  8
0
 62
     7
  0
POLYLINE
  5
473
  8
0
 62
     7
 66
     1
 10
0.0
 20
0.0
 30
0.0
 40
0.01
 41
0.01
  0
VERTEX
  5
10AC
  8
0
 62
     7
 10
4.629999999999999
 20
3.0
 30
0.0
  0
VERTEX
  5
10AD
  8
0
 62
     7
 10
4.6799999999999988
 20
4.0
 30
0.0
  0
SEQEND
  5
10AE
  8
0
 62
     7
  0
POLYLINE
  5
477
  8
0
 62
     7
 66
     1
 10
0.0
 20
0.0
 30
0.0
 70
     1
 40
0.005
 41
0.005
  0
VERTEX
  5
10AF
  8
0
 62
     7
 10
4.6275000000000004
 20
3.0
 30
0.0
 42
1.0
  0
VERTEX
  5
10B0
  8
0
 62
     7
 10
4.6325000000000003
 20
3.0
 30
0.0
 42
1.0
  0
SEQEND
  5
10B1
  8
0
 62
     7
  0
POLYLINE
  5
47B
  8
0
 62
     7
 66
     1
 10
0.0
 20
0.0
 30
0.0
 70
     1
 40
0.005
 41
0.005
  0
VERTEX
  5
10B2
  8
0
 62
     7
 10
4.6775000000000002
 20
4.0
 30
0.0
 42
1.0
  0
VERTEX
  5
10B3
  8
0
 62
     7
 10
4.6825000000000001
 20
4.0
 30
0.0
 42
1.0
  0
SEQEND
  5
10B4
  8
0
 62
     7
  0
POLYLINE
  5
47F
  8
0
 62
     7
 66
     1
 10
0.0
 20
0.0
 30
0.0
 40
0.01
 41
0.01
  0
VERTEX
  5
10B5
  8
0
 62
     7
 10
4.6100000000000003
 20
3.0
 30
0.0
  0
VERTEX
  5
10B6
  8
0
 62
     7
 10
4.6600000000000001
 20
4.0
 30
0.0
  0
SEQEND
  5
10B7
  8
0
 62
     7
  0
POLYLINE
  5
483
  8
0
 62
     7
 66
     1
 10
0.0
 20
0.0
 30
0.0
 70
     1
 40
0.005
 41
0.005
  0
VERTEX
  5
10B8
  8
0
 62
     7
 10
4.607499999999999
 20
3.0
 30
0.0
 42
1.0
  0
VERTEX
  5
10B9
  8
0
 62
     7
 10
4.6124999999999989
 20
3.0
 30
0.0
 42
1.0
  0
SEQEND
  5
10BA
  8
0
 62
     7
  0
POLYLINE
  5
487
  8
0
 62
     7
 66
     1
 10
0.0
 20
0.0
 30
0.0
 70
     1
 40
0.005
 41
0.005
  0
VERTEX
  5
10BB
  8
0
 62
     7
 10
4.6574999999999989
 20
4.0
 30
0.0
 42
1.0
  0
VERTEX
  5
10BC
  8
0
 62
     7
 10
4.6624999999999988
 20
4.0
 30
0.0
 42
1.0
  0
SEQEND
  5
10BD
  8
0
 62
     7
  0
POLYLINE
  5
48B
  8
0
 62
     7
 66
     1
 10
0.0
 20
0.0
 30
0.0
 40
0.01
 41
0.01
  0
VERTEX
  5
10BE
  8
0
 62
     7
 10
4.6600000000000001
 20
4.0
 30
0.0
  0
VERTEX
  5
10BF
  8
0
 62
     7
 10
4.6600000000000001
 20
4.9000000000000004
 30
0.0
  0
SEQEND
  5
10C0
  8
0
 62
     7
  0
POLYLINE
  5
48F
  8
0
 62
     7
 66
     1
 10
0.0
 20
0.0
 30
0.0
 70
     1
 40
0.005
 41
0.005
  0
VERTEX
  5
10C1
  8
0
 62
     7
 10
4.6574999999999989
 20
4.0
 30
0.0
 42
1.0
  0
VERTEX
  5
10C2
  8
0
 62
     7
 10
4.6624999999999988
 20
4.0
 30
0.0
 42
1.0
  0
SEQEND
  5
10C3
  8
0
 62
     7
  0
POLYLINE
  5
493
  8
0
 62
     7
 66
     1
 10
0.0
 20
0.0
 30
0.0
 70
     1
 40
0.005
 41
0.005
  0
VERTEX
  5
10C4
  8
0
 62
     7
 10
4.6574999999999989
 20
4.9000000000000004
 30
0.0
 42
1.0
  0
VERTEX
  5
10C5
  8
0
 62
     7
 10
4.6624999999999988
 20
4.9000000000000004
 30
0.0
 42
1.0
  0
SEQEND
  5
10C6
  8
0
 62
     7
  0
POLYLINE
  5
497
  8
0
 62
     7
 66
     1
 10
0.0
 20
0.0
 30
0.0
 40
0.01
 41
0.01
  0
VERTEX
  5
10C7
  8
0
 62
     7
 10
4.6399999999999988
 20
4.0
 30
0.0
  0
VERTEX
  5
10C8
  8
0
 62
     7
 10
4.6399999999999988
 20
4.9000000000000004
 30
0.0
  0
SEQEND
  5
10C9
  8
0
 62
     7
  0
POLYLINE
  5
49B
  8
0
 62
     7
 66
     1
 10
0.0
 20
0.0
 30
0.0
 70
     1
 40
0.005
 41
0.005
  0
VERTEX
  5
10CA
  8
0
 62
     7
 10
4.6375000000000002
 20
4.0
 30
0.0
 42
1.0
  0
VERTEX
  5
10CB
  8
0
 62
     7
 10
4.6425000000000001
 20
4.0
 30
0.0
 42
1.0
  0
SEQEND
  5
10CC
  8
0
 62
     7
  0
POLYLINE
  5
49F
  8
0
 62
     7
 66
     1
 10
0.0
 20
0.0
 30
0.0
 70
     1
 40
0.005
 41
0.005
  0
VERTEX
  5
10CD
  8
0
 62
     7
 10
4.6375000000000002
 20
4.9000000000000004
 30
0.0
 42
1.0
  0
VERTEX
  5
10CE
  8
0
 62
     7
 10
4.6425000000000001
 20
4.9000000000000004
 30
0.0
 42
1.0
  0
SEQEND
  5
10CF
  8
0
 62
     7
  0
POLYLINE
  5
4A3
  8
0
 62
     7
 66
     1
 10
0.0
 20
0.0
 30
0.0
 40
0.01
 41
0.01
  0
VERTEX
  5
10D0
  8
0
 62
     7
 10
4.589999999999999
 20
3.0
 30
0.0
  0
VERTEX
  5
10D1
  8
0
 62
     7
 10
4.6399999999999988
 20
4.0
 30
0.0
  0
SEQEND
  5
10D2
  8
0
 62
     7
  0
POLYLINE
  5
4A7
  8
0
 62
     7
 66
     1
 10
0.0
 20
0.0
 30
0.0
 70
     1
 40
0.005
 41
0.005
  0
VERTEX
  5
10D3
  8
0
 62
     7
 10
4.5875000000000004
 20
3.0
 30
0.0
 42
1.0
  0
VERTEX
  5
10D4
  8
0
 62
     7
 10
4.5925000000000002
 20
3.0
 30
0.0
 42
1.0
  0
SEQEND
  5
10D5
  8
0
 62
     7
  0
POLYLINE
  5
4AB
  8
0
 62
     7
 66
     1
 10
0.0
 20
0.0
 30
0.0
 70
     1
 40
0.005
 41
0.005
  0
VERTEX
  5
10D6
  8
0
 62
     7
 10
4.6375000000000002
 20
4.0
 30
0.0
 42
1.0
  0
VERTEX
  5
10D7
  8
0
 62
     7
 10
4.6425000000000001
 20
4.0
 30
0.0
 42
1.0
  0
SEQEND
  5
10D8
  8
0
 62
     7
  0
POLYLINE
  5
4AF
  8
0
 62
     7
 66
     1
 10
0.0
 20
0.0
 30
0.0
 40
0.01
 41
0.01
  0
VERTEX
  5
10D9
  8
0
 62
     7
 10
4.5700000000000003
 20
3.0
 30
0.0
  0
VERTEX
  5
10DA
  8
0
 62
     7
 10
4.6200000000000001
 20
4.0
 30
0.0
  0
SEQEND
  5
10DB
  8
0
 62
     7
  0
POLYLINE
  5
4B3
  8
0
 62
     7
 66
     1
 10
0.0
 20
0.0
 30
0.0
 70
     1
 40
0.005
 41
0.005
  0
VERTEX
  5
10DC
  8
0
 62
     7
 10
4.567499999999999
 20
3.0
 30
0.0
 42
1.0
  0
VERTEX
  5
10DD
  8
0
 62
     7
 10
4.5724999999999989
 20
3.0
 30
0.0
 42
1.0
  0
SEQEND
  5
10DE
  8
0
 62
     7
  0
POLYLINE
  5
4B7
  8
0
 62
     7
 66
     1
 10
0.0
 20
0.0
 30
0.0
 70
     1
 40
0.005
 41
0.005
  0
VERTEX
  5
10DF
  8
0
 62
     7
 10
4.6174999999999988
 20
4.0
 30
0.0
 42
1.0
  0
VERTEX
  5
10E0
  8
0
 62
     7
 10
4.6224999999999987
 20
4.0
 30
0.0
 42
1.0
  0
SEQEND
  5
10E1
  8
0
 62
     7
  0
POLYLINE
  5
4BB
  8
0
 62
     7
 66
     1
 10
0.0
 20
0.0
 30
0.0
 40
0.01
 41
0.01
  0
VERTEX
  5
10E2
  8
0
 62
     7
 10
4.6200000000000001
 20
4.0
 30
0.0
  0
VERTEX
  5
10E3
  8
0
 62
     7
 10
4.6200000000000001
 20
4.9000000000000004
 30
0.0
  0
SEQEND
  5
10E4
  8
0
 62
     7
  0
POLYLINE
  5
4BF
  8
0
 62
     7
 66
     1
 10
0.0
 20
0.0
 30
0.0
 70
     1
 40
0.005
 41
0.005
  0
VERTEX
  5
10E5
  8
0
 62
     7
 10
4.6174999999999988
 20
4.0
 30
0.0
 42
1.0
  0
VERTEX
  5
10E6
  8
0
 62
     7
 10
4.6224999999999987
 20
4.0
 30
0.0
 42
1.0
  0
SEQEND
  5
10E7
  8
0
 62
     7
  0
POLYLINE
  5
4C3
  8
0
 62
     7
 66
     1
 10
0.0
 20
0.0
 30
0.0
 70
     1
 40
0.005
 41
0.005
  0
VERTEX
  5
10E8
  8
0
 62
     7
 10
4.6174999999999988
 20
4.9000000000000004
 30
0.0
 42
1.0
  0
VERTEX
  5
10E9
  8
0
 62
     7
 10
4.6224999999999987
 20
4.9000000000000004
 30
0.0
 42
1.0
  0
SEQEND
  5
10EA
  8
0
 62
     7
  0
POLYLINE
  5
4C7
  8
0
 62
     7
 66
     1
 10
0.0
 20
0.0
 30
0.0
 40
0.01
 41
0.01
  0
VERTEX
  5
10EB
  8
0
 62
     7
 10
4.5999999999999988
 20
4.0
 30
0.0
  0
VERTEX
  5
10EC
  8
0
 62
     7
 10
4.5999999999999988
 20
4.9000000000000004
 30
0.0
  0
SEQEND
  5
10ED
  8
0
 62
     7
  0
POLYLINE
  5
4CB
  8
0
 62
     7
 66
     1
 10
0.0
 20
0.0
 30
0.0
 70
     1
 40
0.005
 41
0.005
  0
VERTEX
  5
10EE
  8
0
 62
     7
 10
4.5975000000000001
 20
4.0
 30
0.0
 42
1.0
  0
VERTEX
  5
10EF
  8
0
 62
     7
 10
4.6025
 20
4.0
 30
0.0
 42
1.0
  0
SEQEND
  5
10F0
  8
0
 62
     7
  0
POLYLINE
  5
4CF
  8
0
 62
     7
 66
     1
 10
0.0
 20
0.0
 30
0.0
 70
     1
 40
0.005
 41
0.005
  0
VERTEX
  5
10F1
  8
0
 62
     7
 10
4.5975000000000001
 20
4.9000000000000004
 30
0.0
 42
1.0
  0
VERTEX
  5
10F2
  8
0
 62
     7
 10
4.6025
 20
4.9000000000000004
 30
0.0
 42
1.0
  0
SEQEND
  5
10F3
  8
0
 62
     7
  0
POLYLINE
  5
4D3
  8
0
 62
     7
 66
     1
 10
0.0
 20
0.0
 30
0.0
 40
0.009
 41
0.009
  0
VERTEX
  5
10F4
  8
0
 62
     7
 10
2.0
 20
4.4719999999999986
 30
0.0
  0
VERTEX
  5
10F5
  8
0
 62
     7
 10
3.0
 20
4.4239999999999986
 30
0.0
  0
SEQEND
  5
10F6
  8
0
 62
     7
  0
POLYLINE
  5
4D7
  8
0
 62
     7
 66
     1
 10
0.0
 20
0.0
 30
0.0
 70
     1
 40
0.0045
 41
0.0045
  0
VERTEX
  5
10F7
  8
0
 62
     7
 10
1.997749999999999
 20
4.4719999999999986
 30
0.0
 42
1.0
  0
VERTEX
  5
10F8
  8
0
 62
     7
 10
2.0022500000000001
 20
4.4719999999999986
 30
0.0
 42
1.0
  0
SEQEND
  5
10F9
  8
0
 62
     7
  0
POLYLINE
  5
4DB
  8
0
 62
     7
 66
     1
 10
0.0
 20
0.0
 30
0.0
 70
     1
 40
0.0045
 41
0.0045
  0
VERTEX
  5
10FA
  8
0
 62
     7
 10
2.997749999999999
 20
4.4239999999999986
 30
0.0
 42
1.0
  0
VERTEX
  5
10FB
  8
0
 62
     7
 10
3.0022500000000001
 20
4.4239999999999986
 30
0.0
 42
1.0
  0
SEQEND
  5
10FC
  8
0
 62
     7
  0
POLYLINE
  5
4DF
  8
0
 62
     7
 66
     1
 10
0.0
 20
0.0
 30
0.0
 40
0.009
 41
0.009
  0
VERTEX
  5
10FD
  8
0
 62
     7
 10
1.1000000000000001
 20
4.4719999999999986
 30
0.0
  0
VERTEX
  5
10FE
  8
0
 62
     7
 10
2.0
 20
4.4719999999999986
 30
0.0
  0
SEQEND
  5
10FF
  8
0
 62
     7
  0
POLYLINE
  5
4E3
  8
0
 62
     7
 66
     1
 10
0.0
 20
0.0
 30
0.0
 70
     1
 40
0.0045
 41
0.0045
  0
VERTEX
  5
1100
  8
0
 62
     7
 10
1.09775
 20
4.4719999999999986
 30
0.0
 42
1.0
  0
VERTEX
  5
1101
  8
0
 62
     7
 10
1.1022499999999991
 20
4.4719999999999986
 30
0.0
 42
1.0
  0
SEQEND
  5
1102
  8
0
 62
     7
  0
POLYLINE
  5
4E7
  8
0
 62
     7
 66
     1
 10
0.0
 20
0.0
 30
0.0
 70
     1
 40
0.0045
 41
0.0045
  0
VERTEX
  5
1103
  8
0
 62
     7
 10
1.997749999999999
 20
4.4719999999999986
 30
0.0
 42
1.0
  0
VERTEX
  5
1104
  8
0
 62
     7
 10
2.0022500000000001
 20
4.4719999999999986
 30
0.0
 42
1.0
  0
SEQEND
  5
1105
  8
0
 62
     7
  0
POLYLINE
  5
4EB
  8
0
 62
     7
 66
     1
 10
0.0
 20
0.0
 30
0.0
 40
0.009
 41
0.009
  0
VERTEX
  5
1106
  8
0
 62
     7
 10
1.1000000000000001
 20
4.4539999999999988
 30
0.0
  0
VERTEX
  5
1107
  8
0
 62
     7
 10
2.0
 20
4.4539999999999988
 30
0.0
  0
SEQEND
  5
1108
  8
0
 62
     7
  0
POLYLINE
  5
4EF
  8
0
 62
     7
 66
     1
 10
0.0
 20
0.0
 30
0.0
 70
     1
 40
0.0045
 41
0.0045
  0
VERTEX
  5
1109
  8
0
 62
     7
 10
1.09775
 20
4.4539999999999988
 30
0.0
 42
1.0
  0
VERTEX
  5
110A
  8
0
 62
     7
 10
1.1022499999999991
 20
4.4539999999999988
 30
0.0
 42
1.0
  0
SEQEND
  5
110B
  8
0
 62
     7
  0
POLYLINE
  5
4F3
  8
0
 62
     7
 66
     1
 10
0.0
 20
0.0
 30
0.0
 70
     1
 40
0.0045
 41
0.0045
  0
VERTEX
  5
110C
  8
0
 62
     7
 10
1.997749999999999
 20
4.4539999999999988
 30
0.0
 42
1.0
  0
VERTEX
  5
110D
  8
0
 62
     7
 10
2.0022500000000001
 20
4.4539999999999988
 30
0.0
 42
1.0
  0
SEQEND
  5
110E
  8
0
 62
     7
  0
POLYLINE
  5
4F7
  8
0
 62
     7
 66
     1
 10
0.0
 20
0.0
 30
0.0
 40
0.009
 41
0.009
  0
VERTEX
  5
110F
  8
0
 62
     7
 10
2.0
 20
4.4539999999999988
 30
0.0
  0
VERTEX
  5
1110
  8
0
 62
     7
 10
3.0
 20
4.403999999999999
 30
0.0
  0
SEQEND
  5
1111
  8
0
 62
     7
  0
POLYLINE
  5
4FB
  8
0
 62
     7
 66
     1
 10
0.0
 20
0.0
 30
0.0
 70
     1
 40
0.0045
 41
0.0045
  0
VERTEX
  5
1112
  8
0
 62
     7
 10
1.997749999999999
 20
4.4539999999999988
 30
0.0
 42
1.0
  0
VERTEX
  5
1113
  8
0
 62
     7
 10
2.0022500000000001
 20
4.4539999999999988
 30
0.0
 42
1.0
  0
SEQEND
  5
1114
  8
0
 62
     7
  0
POLYLINE
  5
4FF
  8
0
 62
     7
 66
     1
 10
0.0
 20
0.0
 30
0.0
 70
     1
 40
0.0045
 41
0.0045
  0
VERTEX
  5
1115
  8
0
 62
     7
 10
2.997749999999999
 20
4.403999999999999
 30
0.0
 42
1.0
  0
VERTEX
  5
1116
  8
0
 62
     7
 10
3.0022500000000001
 20
4.403999999999999
 30
0.0
 42
1.0
  0
SEQEND
  5
1117
  8
0
 62
     7
  0
POLYLINE
  5
503
  8
0
 62
     7
 66
     1
 10
0.0
 20
0.0
 30
0.0
 40
0.009
 41
0.009
  0
VERTEX
  5
1118
  8
0
 62
     7
 10
2.0
 20
4.4359999999999991
 30
0.0
  0
VERTEX
  5
1119
  8
0
 62
     7
 10
3.0
 20
4.3860000000000001
 30
0.0
  0
SEQEND
  5
111A
  8
0
 62
     7
  0
POLYLINE
  5
507
  8
0
 62
     7
 66
     1
 10
0.0
 20
0.0
 30
0.0
 70
     1
 40
0.0045
 41
0.0045
  0
VERTEX
  5
111B
  8
0
 62
     7
 10
1.997749999999999
 20
4.4359999999999991
 30
0.0
 42
1.0
  0
VERTEX
  5
111C
  8
0
 62
     7
 10
2.0022500000000001
 20
4.4359999999999991
 30
0.0
 42
1.0
  0
SEQEND
  5
111D
  8
0
 62
     7
  0
POLYLINE
  5
50B
  8
0
 62
     7
 66
     1
 10
0.0
 20
0.0
 30
0.0
 70
     1
 40
0.0045
 41
0.0045
  0
VERTEX
  5
111E
  8
0
 62
     7
 10
2.997749999999999
 20
4.3860000000000001
 30
0.0
 42
1.0
  0
VERTEX
  5
111F
  8
0
 62
     7
 10
3.0022500000000001
 20
4.3860000000000001
 30
0.0
 42
1.0
  0
SEQEND
  5
1120
  8
0
 62
     7
  0
POLYLINE
  5
50F
  8
0
 62
     7
 66
     1
 10
0.0
 20
0.0
 30
0.0
 40
0.009
 41
0.009
  0
VERTEX
  5
1121
  8
0
 62
     7
 10
1.1000000000000001
 20
4.4359999999999991
 30
0.0
  0
VERTEX
  5
1122
  8
0
 62
     7
 10
2.0
 20
4.4359999999999991
 30
0.0
  0
SEQEND
  5
1123
  8
0
 62
     7
  0
POLYLINE
  5
513
  8
0
 62
     7
 66
     1
 10
0.0
 20
0.0
 30
0.0
 70
     1
 40
0.0045
 41
0.0045
  0
VERTEX
  5
1124
  8
0
 62
     7
 10
1.09775
 20
4.4359999999999991
 30
0.0
 42
1.0
  0
VERTEX
  5
1125
  8
0
 62
     7
 10
1.1022499999999991
 20
4.4359999999999991
 30
0.0
 42
1.0
  0
SEQEND
  5
1126
  8
0
 62
     7
  0
POLYLINE
  5
517
  8
0
 62
     7
 66
     1
 10
0.0
 20
0.0
 30
0.0
 70
     1
 40
0.0045
 41
0.0045
  0
VERTEX
  5
1127
  8
0
 62
     7
 10
1.997749999999999
 20
4.4359999999999991
 30
0.0
 42
1.0
  0
VERTEX
  5
1128
  8
0
 62
     7
 10
2.0022500000000001
 20
4.4359999999999991
 30
0.0
 42
1.0
  0
SEQEND
  5
1129
  8
0
 62
     7
  0
POLYLINE
  5
51B
  8
0
 62
     7
 66
     1
 10
0.0
 20
0.0
 30
0.0
 40
0.009
 41
0.009
  0
VERTEX
  5
112A
  8
0
 62
     7
 10
1.1000000000000001
 20
4.4180000000000001
 30
0.0
  0
VERTEX
  5
112B
  8
0
 62
     7
 10
2.0
 20
4.4180000000000001
 30
0.0
  0
SEQEND
  5
112C
  8
0
 62
     7
  0
POLYLINE
  5
51F
  8
0
 62
     7
 66
     1
 10
0.0
 20
0.0
 30
0.0
 70
     1
 40
0.0045
 41
0.0045
  0
VERTEX
  5
112D
  8
0
 62
     7
 10
1.09775
 20
4.4180000000000001
 30
0.0
 42
1.0
  0
VERTEX
  5
112E
  8
0
 62
     7
 10
1.1022499999999991
 20
4.4180000000000001
 30
0.0
 42
1.0
  0
SEQEND
  5
112F
  8
0
 62
     7
  0
POLYLINE
  5
523
  8
0
 62
     7
 66
     1
 10
0.0
 20
0.0
 30
0.0
 70
     1
 40
0.0045
 41
0.0045
  0
VERTEX
  5
1130
  8
0
 62
     7
 10
1.997749999999999
 20
4.4180000000000001
 30
0.0
 42
1.0
  0
VERTEX
  5
1131
  8
0
 62
     7
 10
2.0022500000000001
 20
4.4180000000000001
 30
0.0
 42
1.0
  0
SEQEND
  5
1132
  8
0
 62
     7
  0
POLYLINE
  5
527
  8
0
 62
     7
 66
     1
 10
0.0
 20
0.0
 30
0.0
 40
0.009
 41
0.009
  0
VERTEX
  5
1133
  8
0
 62
     7
 10
2.0
 20
4.4180000000000001
 30
0.0
  0
VERTEX
  5
1134
  8
0
 62
     7
 10
3.0
 20
4.3680000000000003
 30
0.0
  0
SEQEND
  5
1135
  8
0
 62
     7
  0
POLYLINE
  5
52B
  8
0
 62
     7
 66
     1
 10
0.0
 20
0.0
 30
0.0
 70
     1
 40
0.0045
 41
0.0045
  0
VERTEX
  5
1136
  8
0
 62
     7
 10
1.997749999999999
 20
4.4180000000000001
 30
0.0
 42
1.0
  0
VERTEX
  5
1137
  8
0
 62
     7
 10
2.0022500000000001
 20
4.4180000000000001
 30
0.0
 42
1.0
  0
SEQEND
  5
1138
  8
0
 62
     7
  0
POLYLINE
  5
52F
  8
0
 62
     7
 66
     1
 10
0.0
 20
0.0
 30
0.0
 70
     1
 40
0.0045
 41
0.0045
  0
VERTEX
  5
1139
  8
0
 62
     7
 10
2.997749999999999
 20
4.3680000000000003
 30
0.0
 42
1.0
  0
VERTEX
  5
113A
  8
0
 62
     7
 10
3.0022500000000001
 20
4.3680000000000003
 30
0.0
 42
1.0
  0
SEQEND
  5
113B
  8
0
 62
     7
  0
POLYLINE
  5
533
  8
0
 62
     7
 66
     1
 10
0.0
 20
0.0
 30
0.0
 40
0.009
 41
0.009
  0
VERTEX
  5
113C
  8
0
 62
     7
 10
2.0
 20
4.4000000000000004
 30
0.0
  0
VERTEX
  5
113D
  8
0
 62
     7
 10
3.0
 20
4.3499999999999988
 30
0.0
  0
SEQEND
  5
113E
  8
0
 62
     7
  0
POLYLINE
  5
537
  8
0
 62
     7
 66
     1
 10
0.0
 20
0.0
 30
0.0
 70
     1
 40
0.0045
 41
0.0045
  0
VERTEX
  5
113F
  8
0
 62
     7
 10
1.997749999999999
 20
4.4000000000000004
 30
0.0
 42
1.0
  0
VERTEX
  5
1140
  8
0
 62
     7
 10
2.0022500000000001
 20
4.4000000000000004
 30
0.0
 42
1.0
  0
SEQEND
  5
1141
  8
0
 62
     7
  0
POLYLINE
  5
53B
  8
0
 62
     7
 66
     1
 10
0.0
 20
0.0
 30
0.0
 70
     1
 40
0.0045
 41
0.0045
  0
VERTEX
  5
1142
  8
0
 62
     7
 10
2.997749999999999
 20
4.3499999999999988
 30
0.0
 42
1.0
  0
VERTEX
  5
1143
  8
0
 62
     7
 10
3.0022500000000001
 20
4.3499999999999988
 30
0.0
 42
1.0
  0
SEQEND
  5
1144
  8
0
 62
     7
  0
POLYLINE
  5
53F
  8
0
 62
     7
 66
     1
 10
0.0
 20
0.0
 30
0.0
 40
0.009
 41
0.009
  0
VERTEX
  5
1145
  8
0
 62
     7
 10
1.1000000000000001
 20
4.4000000000000004
 30
0.0
  0
VERTEX
  5
1146
  8
0
 62
     7
 10
2.0
 20
4.4000000000000004
 30
0.0
  0
SEQEND
  5
1147
  8
0
 62
     7
  0
POLYLINE
  5
543
  8
0
 62
     7
 66
     1
 10
0.0
 20
0.0
 30
0.0
 70
     1
 40
0.0045
 41
0.0045
  0
VERTEX
  5
1148
  8
0
 62
     7
 10
1.09775
 20
4.4000000000000004
 30
0.0
 42
1.0
  0
VERTEX
  5
1149
  8
0
 62
     7
 10
1.1022499999999991
 20
4.4000000000000004
 30
0.0
 42
1.0
  0
SEQEND
  5
114A
  8
0
 62
     7
  0
POLYLINE
  5
547
  8
0
 62
     7
 66
     1
 10
0.0
 20
0.0
 30
0.0
 70
     1
 40
0.0045
 41
0.0045
  0
VERTEX
  5
114B
  8
0
 62
     7
 10
1.997749999999999
 20
4.4000000000000004
 30
0.0
 42
1.0
  0
VERTEX
  5
114C
  8
0
 62
     7
 10
2.0022500000000001
 20
4.4000000000000004
 30
0.0
 42
1.0
  0
SEQEND
  5
114D
  8
0
 62
     7
  0
POLYLINE
  5
54B
  8
0
 62
     7
 66
     1
 10
0.0
 20
0.0
 30
0.0
 40
0.008
 41
0.008
  0
VERTEX
  5
114E
  8
0
 62
     7
 10
2.0
 20
4.363999999999999
 30
0.0
  0
VERTEX
  5
114F
  8
0
 62
     7
 10
3.0
 20
4.3140000000000001
 30
0.0
  0
SEQEND
  5
1150
  8
0
 62
     7
  0
POLYLINE
  5
54F
  8
0
 62
     7
 66
     1
 10
0.0
 20
0.0
 30
0.0
 70
     1
 40
0.004
 41
0.004
  0
VERTEX
  5
1151
  8
0
 62
     7
 10
1.998
 20
4.363999999999999
 30
0.0
 42
1.0
  0
VERTEX
  5
1152
  8
0
 62
     7
 10
2.0019999999999989
 20
4.363999999999999
 30
0.0
 42
1.0
  0
SEQEND
  5
1153
  8
0
 62
     7
  0
POLYLINE
  5
553
  8
0
 62
     7
 66
     1
 10
0.0
 20
0.0
 30
0.0
 70
     1
 40
0.004
 41
0.004
  0
VERTEX
  5
1154
  8
0
 62
     7
 10
2.9980000000000002
 20
4.3140000000000001
 30
0.0
 42
1.0
  0
VERTEX
  5
1155
  8
0
 62
     7
 10
3.0019999999999989
 20
4.3140000000000001
 30
0.0
 42
1.0
  0
SEQEND
  5
1156
  8
0
 62
     7
  0
POLYLINE
  5
557
  8
0
 62
     7
 66
     1
 10
0.0
 20
0.0
 30
0.0
 40
0.008
 41
0.008
  0
VERTEX
  5
1157
  8
0
 62
     7
 10
1.1000000000000001
 20
4.363999999999999
 30
0.0
  0
VERTEX
  5
1158
  8
0
 62
     7
 10
2.0
 20
4.363999999999999
 30
0.0
  0
SEQEND
  5
1159
  8
0
 62
     7
  0
POLYLINE
  5
55B
  8
0
 62
     7
 66
     1
 10
0.0
 20
0.0
 30
0.0
 70
     1
 40
0.004
 41
0.004
  0
VERTEX
  5
115A
  8
0
 62
     7
 10
1.097999999999999
 20
4.363999999999999
 30
0.0
 42
1.0
  0
VERTEX
  5
115B
  8
0
 62
     7
 10
1.1020000000000001
 20
4.363999999999999
 30
0.0
 42
1.0
  0
SEQEND
  5
115C
  8
0
 62
     7
  0
POLYLINE
  5
55F
  8
0
 62
     7
 66
     1
 10
0.0
 20
0.0
 30
0.0
 70
     1
 40
0.004
 41
0.004
  0
VERTEX
  5
115D
  8
0
 62
     7
 10
1.998
 20
4.363999999999999
 30
0.0
 42
1.0
  0
VERTEX
  5
115E
  8
0
 62
     7
 10
2.0019999999999989
 20
4.363999999999999
 30
0.0
 42
1.0
  0
SEQEND
  5
115F
  8
0
 62
     7
  0
POLYLINE
  5
563
  8
0
 62
     7
 66
     1
 10
0.0
 20
0.0
 30
0.0
 40
0.008
 41
0.008
  0
VERTEX
  5
1160
  8
0
 62
     7
 10
1.1000000000000001
 20
4.347999999999999
 30
0.0
  0
VERTEX
  5
1161
  8
0
 62
     7
 10
2.0
 20
4.347999999999999
 30
0.0
  0
SEQEND
  5
1162
  8
0
 62
     7
  0
POLYLINE
  5
567
  8
0
 62
     7
 66
     1
 10
0.0
 20
0.0
 30
0.0
 70
     1
 40
0.004
 41
0.004
  0
VERTEX
  5
1163
  8
0
 62
     7
 10
1.097999999999999
 20
4.347999999999999
 30
0.0
 42
1.0
  0
VERTEX
  5
1164
  8
0
 62
     7
 10
1.1020000000000001
 20
4.347999999999999
 30
0.0
 42
1.0
  0
SEQEND
  5
1165
  8
0
 62
     7
  0
POLYLINE
  5
56B
  8
0
 62
     7
 66
     1
 10
0.0
 20
0.0
 30
0.0
 70
     1
 40
0.004
 41
0.004
  0
VERTEX
  5
1166
  8
0
 62
     7
 10
1.998
 20
4.347999999999999
 30
0.0
 42
1.0
  0
VERTEX
  5
1167
  8
0
 62
     7
 10
2.0019999999999989
 20
4.347999999999999
 30
0.0
 42
1.0
  0
SEQEND
  5
1168
  8
0
 62
     7
  0
POLYLINE
  5
56F
  8
0
 62
     7
 66
     1
 10
0.0
 20
0.0
 30
0.0
 40
0.008
 41
0.008
  0
VERTEX
  5
1169
  8
0
 62
     7
 10
2.0
 20
4.347999999999999
 30
0.0
  0
VERTEX
  5
116A
  8
0
 62
     7
 10
3.0
 20
4.298
 30
0.0
  0
SEQEND
  5
116B
  8
0
 62
     7
  0
POLYLINE
  5
573
  8
0
 62
     7
 66
     1
 10
0.0
 20
0.0
 30
0.0
 70
     1
 40
0.004
 41
0.004
  0
VERTEX
  5
116C
  8
0
 62
     7
 10
1.998
 20
4.347999999999999
 30
0.0
 42
1.0
  0
VERTEX
  5
116D
  8
0
 62
     7
 10
2.0019999999999989
 20
4.347999999999999
 30
0.0
 42
1.0
  0
SEQEND
  5
116E
  8
0
 62
     7
  0
POLYLINE
  5
577
  8
0
 62
     7
 66
     1
 10
0.0
 20
0.0
 30
0.0
 70
     1
 40
0.004
 41
0.004
  0
VERTEX
  5
116F
  8
0
 62
     7
 10
2.9980000000000002
 20
4.298
 30
0.0
 42
1.0
  0
VERTEX
  5
1170
  8
0
 62
     7
 10
3.0019999999999989
 20
4.298
 30
0.0
 42
1.0
  0
SEQEND
  5
1171
  8
0
 62
     7
  0
POLYLINE
  5
57B
  8
0
 62
     7
 66
     1
 10
0.0
 20
0.0
 30
0.0
 40
0.008
 41
0.008
  0
VERTEX
  5
1172
  8
0
 62
     7
 10
2.0
 20
4.331999999999999
 30
0.0
  0
VERTEX
  5
1173
  8
0
 62
     7
 10
3.0
 20
4.282
 30
0.0
  0
SEQEND
  5
1174
  8
0
 62
     7
  0
POLYLINE
  5
57F
  8
0
 62
     7
 66
     1
 10
0.0
 20
0.0
 30
0.0
 70
     1
 40
0.004
 41
0.004
  0
VERTEX
  5
1175
  8
0
 62
     7
 10
1.998
 20
4.331999999999999
 30
0.0
 42
1.0
  0
VERTEX
  5
1176
  8
0
 62
     7
 10
2.0019999999999989
 20
4.331999999999999
 30
0.0
 42
1.0
  0
SEQEND
  5
1177
  8
0
 62
     7
  0
POLYLINE
  5
583
  8
0
 62
     7
 66
     1
 10
0.0
 20
0.0
 30
0.0
 70
     1
 40
0.004
 41
0.004
  0
VERTEX
  5
1178
  8
0
 62
     7
 10
2.9980000000000002
 20
4.282
 30
0.0
 42
1.0
  0
VERTEX
  5
1179
  8
0
 62
     7
 10
3.0019999999999989
 20
4.282
 30
0.0
 42
1.0
  0
SEQEND
  5
117A
  8
0
 62
     7
  0
POLYLINE
  5
587
  8
0
 62
     7
 66
     1
 10
0.0
 20
0.0
 30
0.0
 40
0.008
 41
0.008
  0
VERTEX
  5
117B
  8
0
 62
     7
 10
1.1000000000000001
 20
4.331999999999999
 30
0.0
  0
VERTEX
  5
117C
  8
0
 62
     7
 10
2.0
 20
4.331999999999999
 30
0.0
  0
SEQEND
  5
117D
  8
0
 62
     7
  0
POLYLINE
  5
58B
  8
0
 62
     7
 66
     1
 10
0.0
 20
0.0
 30
0.0
 70
     1
 40
0.004
 41
0.004
  0
VERTEX
  5
117E
  8
0
 62
     7
 10
1.097999999999999
 20
4.331999999999999
 30
0.0
 42
1.0
  0
VERTEX
  5
117F
  8
0
 62
     7
 10
1.1020000000000001
 20
4.331999999999999
 30
0.0
 42
1.0
  0
SEQEND
  5
1180
  8
0
 62
     7
  0
POLYLINE
  5
58F
  8
0
 62
     7
 66
     1
 10
0.0
 20
0.0
 30
0.0
 70
     1
 40
0.004
 41
0.004
  0
VERTEX
  5
1181
  8
0
 62
     7
 10
1.998
 20
4.331999999999999
 30
0.0
 42
1.0
  0
VERTEX
  5
1182
  8
0
 62
     7
 10
2.0019999999999989
 20
4.331999999999999
 30
0.0
 42
1.0
  0
SEQEND
  5
1183
  8
0
 62
     7
  0
POLYLINE
  5
593
  8
0
 62
     7
 66
     1
 10
0.0
 20
0.0
 30
0.0
 40
0.008
 41
0.008
  0
VERTEX
  5
1184
  8
0
 62
     7
 10
1.1000000000000001
 20
4.3159999999999989
 30
0.0
  0
VERTEX
  5
1185
  8
0
 62
     7
 10
2.0
 20
4.3159999999999989
 30
0.0
  0
SEQEND
  5
1186
  8
0
 62
     7
  0
POLYLINE
  5
597
  8
0
 62
     7
 66
     1
 10
0.0
 20
0.0
 30
0.0
 70
     1
 40
0.004
 41
0.004
  0
VERTEX
  5
1187
  8
0
 62
     7
 10
1.097999999999999
 20
4.3159999999999989
 30
0.0
 42
1.0
  0
VERTEX
  5
1188
  8
0
 62
     7
 10
1.1020000000000001
 20
4.3159999999999989
 30
0.0
 42
1.0
  0
SEQEND
  5
1189
  8
0
 62
     7
  0
POLYLINE
  5
59B
  8
0
 62
     7
 66
     1
 10
0.0
 20
0.0
 30
0.0
 70
     1
 40
0.004
 41
0.004
  0
VERTEX
  5
118A
  8
0
 62
     7
 10
1.998
 20
4.3159999999999989
 30
0.0
 42
1.0
  0
VERTEX
  5
118B
  8
0
 62
     7
 10
2.0019999999999989
 20
4.3159999999999989
 30
0.0
 42
1.0
  0
SEQEND
  5
118C
  8
0
 62
     7
  0
POLYLINE
  5
59F
  8
0
 62
     7
 66
     1
 10
0.0
 20
0.0
 30
0.0
 40
0.008
 41
0.008
  0
VERTEX
  5
118D
  8
0
 62
     7
 10
2.0
 20
4.3159999999999989
 30
0.0
  0
VERTEX
  5
118E
  8
0
 62
     7
 10
3.0
 20
4.266
 30
0.0
  0
SEQEND
  5
118F
  8
0
 62
     7
  0
POLYLINE
  5
5A3
  8
0
 62
     7
 66
     1
 10
0.0
 20
0.0
 30
0.0
 70
     1
 40
0.004
 41
0.004
  0
VERTEX
  5
1190
  8
0
 62
     7
 10
1.998
 20
4.3159999999999989
 30
0.0
 42
1.0
  0
VERTEX
  5
1191
  8
0
 62
     7
 10
2.0019999999999989
 20
4.3159999999999989
 30
0.0
 42
1.0
  0
SEQEND
  5
1192
  8
0
 62
     7
  0
POLYLINE
  5
5A7
  8
0
 62
     7
 66
     1
 10
0.0
 20
0.0
 30
0.0
 70
     1
 40
0.004
 41
0.004
  0
VERTEX
  5
1193
  8
0
 62
     7
 10
2.9980000000000002
 20
4.266
 30
0.0
 42
1.0
  0
VERTEX
  5
1194
  8
0
 62
     7
 10
3.0019999999999989
 20
4.266
 30
0.0
 42
1.0
  0
SEQEND
  5
1195
  8
0
 62
     7
  0
POLYLINE
  5
5AB
  8
0
 62
     7
 66
     1
 10
0.0
 20
0.0
 30
0.0
 40
0.008
 41
0.008
  0
VERTEX
  5
1196
  8
0
 62
     7
 10
2.0
 20
4.2999999999999989
 30
0.0
  0
VERTEX
  5
1197
  8
0
 62
     7
 10
3.0
 20
4.25
 30
0.0
  0
SEQEND
  5
1198
  8
0
 62
     7
  0
POLYLINE
  5
5AF
  8
0
 62
     7
 66
     1
 10
0.0
 20
0.0
 30
0.0
 70
     1
 40
0.004
 41
0.004
  0
VERTEX
  5
1199
  8
0
 62
     7
 10
1.998
 20
4.2999999999999989
 30
0.0
 42
1.0
  0
VERTEX
  5
119A
  8
0
 62
     7
 10
2.0019999999999989
 20
4.2999999999999989
 30
0.0
 42
1.0
  0
SEQEND
  5
119B
  8
0
 62
     7
  0
POLYLINE
  5
5B3
  8
0
 62
     7
 66
     1
 10
0.0
 20
0.0
 30
0.0
 70
     1
 40
0.004
 41
0.004
  0
VERTEX
  5
119C
  8
0
 62
     7
 10
2.9980000000000002
 20
4.25
 30
0.0
 42
1.0
  0
VERTEX
  5
119D
  8
0
 62
     7
 10
3.0019999999999989
 20
4.25
 30
0.0
 42
1.0
  0
SEQEND
  5
119E
  8
0
 62
     7
  0
POLYLINE
  5
5B7
  8
0
 62
     7
 66
     1
 10
0.0
 20
0.0
 30
0.0
 40
0.008
 41
0.008
  0
VERTEX
  5
119F
  8
0
 62
     7
 10
1.1000000000000001
 20
4.2999999999999989
 30
0.0
  0
VERTEX
  5
11A0
  8
0
 62
     7
 10
2.0
 20
4.2999999999999989
 30
0.0
  0
SEQEND
  5
11A1
  8
0
 62
     7
  0
POLYLINE
  5
5BB
  8
0
 62
     7
 66
     1
 10
0.0
 20
0.0
 30
0.0
 70
     1
 40
0.004
 41
0.004
  0
VERTEX
  5
11A2
  8
0
 62
     7
 10
1.097999999999999
 20
4.2999999999999989
 30
0.0
 42
1.0
  0
VERTEX
  5
11A3
  8
0
 62
     7
 10
1.1020000000000001
 20
4.2999999999999989
 30
0.0
 42
1.0
  0
SEQEND
  5
11A4
  8
0
 62
     7
  0
POLYLINE
  5
5BF
  8
0
 62
     7
 66
     1
 10
0.0
 20
0.0
 30
0.0
 70
     1
 40
0.004
 41
0.004
  0
VERTEX
  5
11A5
  8
0
 62
     7
 10
1.998
 20
4.2999999999999989
 30
0.0
 42
1.0
  0
VERTEX
  5
11A6
  8
0
 62
     7
 10
2.0019999999999989
 20
4.2999999999999989
 30
0.0
 42
1.0
  0
SEQEND
  5
11A7
  8
0
 62
     7
  0
POLYLINE
  5
5C3
  8
0
 62
     7
 66
     1
 10
0.0
 20
0.0
 30
0.0
 40
0.007
 41
0.007
  0
VERTEX
  5
11A8
  8
0
 62
     7
 10
2.0
 20
4.2560000000000002
 30
0.0
  0
VERTEX
  5
11A9
  8
0
 62
     7
 10
3.0
 20
4.2060000000000004
 30
0.0
  0
SEQEND
  5
11AA
  8
0
 62
     7
  0
POLYLINE
  5
5C7
  8
0
 62
     7
 66
     1
 10
0.0
 20
0.0
 30
0.0
 70
     1
 40
0.0035
 41
0.0035
  0
VERTEX
  5
11AB
  8
0
 62
     7
 10
1.9982500000000001
 20
4.2560000000000002
 30
0.0
 42
1.0
  0
VERTEX
  5
11AC
  8
0
 62
     7
 10
2.001749999999999
 20
4.2560000000000002
 30
0.0
 42
1.0
  0
SEQEND
  5
11AD
  8
0
 62
     7
  0
POLYLINE
  5
5CB
  8
0
 62
     7
 66
     1
 10
0.0
 20
0.0
 30
0.0
 70
     1
 40
0.0035
 41
0.0035
  0
VERTEX
  5
11AE
  8
0
 62
     7
 10
2.9982500000000001
 20
4.2060000000000004
 30
0.0
 42
1.0
  0
VERTEX
  5
11AF
  8
0
 62
     7
 10
3.001749999999999
 20
4.2060000000000004
 30
0.0
 42
1.0
  0
SEQEND
  5
11B0
  8
0
 62
     7
  0
POLYLINE
  5
5CF
  8
0
 62
     7
 66
     1
 10
0.0
 20
0.0
 30
0.0
 40
0.007
 41
0.007
  0
VERTEX
  5
11B1
  8
0
 62
     7
 10
1.1000000000000001
 20
4.2560000000000002
 30
0.0
  0
VERTEX
  5
11B2
  8
0
 62
     7
 10
2.0
 20
4.2560000000000002
 30
0.0
  0
SEQEND
  5
11B3
  8
0
 62
     7
  0
POLYLINE
  5
5D3
  8
0
 62
     7
 66
     1
 10
0.0
 20
0.0
 30
0.0
 70
     1
 40
0.0035
 41
0.0035
  0
VERTEX
  5
11B4
  8
0
 62
     7
 10
1.0982499999999991
 20
4.2560000000000002
 30
0.0
 42
1.0
  0
VERTEX
  5
11B5
  8
0
 62
     7
 10
1.10175
 20
4.2560000000000002
 30
0.0
 42
1.0
  0
SEQEND
  5
11B6
  8
0
 62
     7
  0
POLYLINE
  5
5D7
  8
0
 62
     7
 66
     1
 10
0.0
 20
0.0
 30
0.0
 70
     1
 40
0.0035
 41
0.0035
  0
VERTEX
  5
11B7
  8
0
 62
     7
 10
1.9982500000000001
 20
4.2560000000000002
 30
0.0
 42
1.0
  0
VERTEX
  5
11B8
  8
0
 62
     7
 10
2.001749999999999
 20
4.2560000000000002
 30
0.0
 42
1.0
  0
SEQEND
  5
11B9
  8
0
 62
     7
  0
POLYLINE
  5
5DB
  8
0
 62
     7
 66
     1
 10
0.0
 20
0.0
 30
0.0
 40
0.007
 41
0.007
  0
VERTEX
  5
11BA
  8
0
 62
     7
 10
1.1000000000000001
 20
4.2419999999999991
 30
0.0
  0
VERTEX
  5
11BB
  8
0
 62
     7
 10
2.0
 20
4.2419999999999991
 30
0.0
  0
SEQEND
  5
11BC
  8
0
 62
     7
  0
POLYLINE
  5
5DF
  8
0
 62
     7
 66
     1
 10
0.0
 20
0.0
 30
0.0
 70
     1
 40
0.0035
 41
0.0035
  0
VERTEX
  5
11BD
  8
0
 62
     7
 10
1.0982499999999991
 20
4.2419999999999991
 30
0.0
 42
1.0
  0
VERTEX
  5
11BE
  8
0
 62
     7
 10
1.10175
 20
4.2419999999999991
 30
0.0
 42
1.0
  0
SEQEND
  5
11BF
  8
0
 62
     7
  0
POLYLINE
  5
5E3
  8
0
 62
     7
 66
     1
 10
0.0
 20
0.0
 30
0.0
 70
     1
 40
0.0035
 41
0.0035
  0
VERTEX
  5
11C0
  8
0
 62
     7
 10
1.9982500000000001
 20
4.2419999999999991
 30
0.0
 42
1.0
  0
VERTEX
  5
11C1
  8
0
 62
     7
 10
2.001749999999999
 20
4.2419999999999991
 30
0.0
 42
1.0
  0
SEQEND
  5
11C2
  8
0
 62
     7
  0
POLYLINE
  5
5E7
  8
0
 62
     7
 66
     1
 10
0.0
 20
0.0
 30
0.0
 40
0.007
 41
0.007
  0
VERTEX
  5
11C3
  8
0
 62
     7
 10
2.0
 20
4.2419999999999991
 30
0.0
  0
VERTEX
  5
11C4
  8
0
 62
     7
 10
3.0
 20
4.1920000000000002
 30
0.0
  0
SEQEND
  5
11C5
  8
0
 62
     7
  0
POLYLINE
  5
5EB
  8
0
 62
     7
 66
     1
 10
0.0
 20
0.0
 30
0.0
 70
     1
 40
0.0035
 41
0.0035
  0
VERTEX
  5
11C6
  8
0
 62
     7
 10
1.9982500000000001
 20
4.2419999999999991
 30
0.0
 42
1.0
  0
VERTEX
  5
11C7
  8
0
 62
     7
 10
2.001749999999999
 20
4.2419999999999991
 30
0.0
 42
1.0
  0
SEQEND
  5
11C8
  8
0
 62
     7
  0
POLYLINE
  5
5EF
  8
0
 62
     7
 66
     1
 10
0.0
 20
0.0
 30
0.0
 70
     1
 40
0.0035
 41
0.0035
  0
VERTEX
  5
11C9
  8
0
 62
     7
 10
2.9982500000000001
 20
4.1920000000000002
 30
0.0
 42
1.0
  0
VERTEX
  5
11CA
  8
0
 62
     7
 10
3.001749999999999
 20
4.1920000000000002
 30
0.0
 42
1.0
  0
SEQEND
  5
11CB
  8
0
 62
     7
  0
POLYLINE
  5
5F3
  8
0
 62
     7
 66
     1
 10
0.0
 20
0.0
 30
0.0
 40
0.007
 41
0.007
  0
VERTEX
  5
11CC
  8
0
 62
     7
 10
2.0
 20
4.2279999999999989
 30
0.0
  0
VERTEX
  5
11CD
  8
0
 62
     7
 10
3.0
 20
4.177999999999999
 30
0.0
  0
SEQEND
  5
11CE
  8
0
 62
     7
  0
POLYLINE
  5
5F7
  8
0
 62
     7
 66
     1
 10
0.0
 20
0.0
 30
0.0
 70
     1
 40
0.0035
 41
0.0035
  0
VERTEX
  5
11CF
  8
0
 62
     7
 10
1.9982500000000001
 20
4.2279999999999989
 30
0.0
 42
1.0
  0
VERTEX
  5
11D0
  8
0
 62
     7
 10
2.001749999999999
 20
4.2279999999999989
 30
0.0
 42
1.0
  0
SEQEND
  5
11D1
  8
0
 62
     7
  0
POLYLINE
  5
5FB
  8
0
 62
     7
 66
     1
 10
0.0
 20
0.0
 30
0.0
 70
     1
 40
0.0035
 41
0.0035
  0
VERTEX
  5
11D2
  8
0
 62
     7
 10
2.9982500000000001
 20
4.177999999999999
 30
0.0
 42
1.0
  0
VERTEX
  5
11D3
  8
0
 62
     7
 10
3.001749999999999
 20
4.177999999999999
 30
0.0
 42
1.0
  0
SEQEND
  5
11D4
  8
0
 62
     7
  0
POLYLINE
  5
5FF
  8
0
 62
     7
 66
     1
 10
0.0
 20
0.0
 30
0.0
 40
0.007
 41
0.007
  0
VERTEX
  5
11D5
  8
0
 62
     7
 10
1.1000000000000001
 20
4.2279999999999989
 30
0.0
  0
VERTEX
  5
11D6
  8
0
 62
     7
 10
2.0
 20
4.2279999999999989
 30
0.0
  0
SEQEND
  5
11D7
  8
0
 62
     7
  0
POLYLINE
  5
603
  8
0
 62
     7
 66
     1
 10
0.0
 20
0.0
 30
0.0
 70
     1
 40
0.0035
 41
0.0035
  0
VERTEX
  5
11D8
  8
0
 62
     7
 10
1.0982499999999991
 20
4.2279999999999989
 30
0.0
 42
1.0
  0
VERTEX
  5
11D9
  8
0
 62
     7
 10
1.10175
 20
4.2279999999999989
 30
0.0
 42
1.0
  0
SEQEND
  5
11DA
  8
0
 62
     7
  0
POLYLINE
  5
607
  8
0
 62
     7
 66
     1
 10
0.0
 20
0.0
 30
0.0
 70
     1
 40
0.0035
 41
0.0035
  0
VERTEX
  5
11DB
  8
0
 62
     7
 10
1.9982500000000001
 20
4.2279999999999989
 30
0.0
 42
1.0
  0
VERTEX
  5
11DC
  8
0
 62
     7
 10
2.001749999999999
 20
4.2279999999999989
 30
0.0
 42
1.0
  0
SEQEND
  5
11DD
  8
0
 62
     7
  0
POLYLINE
  5
60B
  8
0
 62
     7
 66
     1
 10
0.0
 20
0.0
 30
0.0
 40
0.007
 41
0.007
  0
VERTEX
  5
11DE
  8
0
 62
     7
 10
1.1000000000000001
 20
4.2139999999999986
 30
0.0
  0
VERTEX
  5
11DF
  8
0
 62
     7
 10
2.0
 20
4.2139999999999986
 30
0.0
  0
SEQEND
  5
11E0
  8
0
 62
     7
  0
POLYLINE
  5
60F
  8
0
 62
     7
 66
     1
 10
0.0
 20
0.0
 30
0.0
 70
     1
 40
0.0035
 41
0.0035
  0
VERTEX
  5
11E1
  8
0
 62
     7
 10
1.0982499999999991
 20
4.2139999999999986
 30
0.0
 42
1.0
  0
VERTEX
  5
11E2
  8
0
 62
     7
 10
1.10175
 20
4.2139999999999986
 30
0.0
 42
1.0
  0
SEQEND
  5
11E3
  8
0
 62
     7
  0
POLYLINE
  5
613
  8
0
 62
     7
 66
     1
 10
0.0
 20
0.0
 30
0.0
 70
     1
 40
0.0035
 41
0.0035
  0
VERTEX
  5
11E4
  8
0
 62
     7
 10
1.9982500000000001
 20
4.2139999999999986
 30
0.0
 42
1.0
  0
VERTEX
  5
11E5
  8
0
 62
     7
 10
2.001749999999999
 20
4.2139999999999986
 30
0.0
 42
1.0
  0
SEQEND
  5
11E6
  8
0
 62
     7
  0
POLYLINE
  5
617
  8
0
 62
     7
 66
     1
 10
0.0
 20
0.0
 30
0.0
 40
0.007
 41
0.007
  0
VERTEX
  5
11E7
  8
0
 62
     7
 10
2.0
 20
4.2139999999999986
 30
0.0
  0
VERTEX
  5
11E8
  8
0
 62
     7
 10
3.0
 20
4.1639999999999988
 30
0.0
  0
SEQEND
  5
11E9
  8
0
 62
     7
  0
POLYLINE
  5
61B
  8
0
 62
     7
 66
     1
 10
0.0
 20
0.0
 30
0.0
 70
     1
 40
0.0035
 41
0.0035
  0
VERTEX
  5
11EA
  8
0
 62
     7
 10
1.9982500000000001
 20
4.2139999999999986
 30
0.0
 42
1.0
  0
VERTEX
  5
11EB
  8
0
 62
     7
 10
2.001749999999999
 20
4.2139999999999986
 30
0.0
 42
1.0
  0
SEQEND
  5
11EC
  8
0
 62
     7
  0
POLYLINE
  5
61F
  8
0
 62
     7
 66
     1
 10
0.0
 20
0.0
 30
0.0
 70
     1
 40
0.0035
 41
0.0035
  0
VERTEX
  5
11ED
  8
0
 62
     7
 10
2.9982500000000001
 20
4.1639999999999988
 30
0.0
 42
1.0
  0
VERTEX
  5
11EE
  8
0
 62
     7
 10
3.001749999999999
 20
4.1639999999999988
 30
0.0
 42
1.0
  0
SEQEND
  5
11EF
  8
0
 62
     7
  0
POLYLINE
  5
623
  8
0
 62
     7
 66
     1
 10
0.0
 20
0.0
 30
0.0
 40
0.007
 41
0.007
  0
VERTEX
  5
11F0
  8
0
 62
     7
 10
2.0
 20
4.2000000000000002
 30
0.0
  0
VERTEX
  5
11F1
  8
0
 62
     7
 10
3.0
 20
4.1500000000000004
 30
0.0
  0
SEQEND
  5
11F2
  8
0
 62
     7
  0
POLYLINE
  5
627
  8
0
 62
     7
 66
     1
 10
0.0
 20
0.0
 30
0.0
 70
     1
 40
0.0035
 41
0.0035
  0
VERTEX
  5
11F3
  8
0
 62
     7
 10
1.9982500000000001
 20
4.2000000000000002
 30
0.0
 42
1.0
  0
VERTEX
  5
11F4
  8
0
 62
     7
 10
2.001749999999999
 20
4.2000000000000002
 30
0.0
 42
1.0
  0
SEQEND
  5
11F5
  8
0
 62
     7
  0
POLYLINE
  5
62B
  8
0
 62
     7
 66
     1
 10
0.0
 20
0.0
 30
0.0
 70
     1
 40
0.0035
 41
0.0035
  0
VERTEX
  5
11F6
  8
0
 62
     7
 10
2.9982500000000001
 20
4.1500000000000004
 30
0.0
 42
1.0
  0
VERTEX
  5
11F7
  8
0
 62
     7
 10
3.001749999999999
 20
4.1500000000000004
 30
0.0
 42
1.0
  0
SEQEND
  5
11F8
  8
0
 62
     7
  0
POLYLINE
  5
62F
  8
0
 62
     7
 66
     1
 10
0.0
 20
0.0
 30
0.0
 40
0.007
 41
0.007
  0
VERTEX
  5
11F9
  8
0
 62
     7
 10
1.1000000000000001
 20
4.2000000000000002
 30
0.0
  0
VERTEX
  5
11FA
  8
0
 62
     7
 10
2.0
 20
4.2000000000000002
 30
0.0
  0
SEQEND
  5
11FB
  8
0
 62
     7
  0
POLYLINE
  5
633
  8
0
 62
     7
 66
     1
 10
0.0
 20
0.0
 30
0.0
 70
     1
 40
0.0035
 41
0.0035
  0
VERTEX
  5
11FC
  8
0
 62
     7
 10
1.0982499999999991
 20
4.2000000000000002
 30
0.0
 42
1.0
  0
VERTEX
  5
11FD
  8
0
 62
     7
 10
1.10175
 20
4.2000000000000002
 30
0.0
 42
1.0
  0
SEQEND
  5
11FE
  8
0
 62
     7
  0
POLYLINE
  5
637
  8
0
 62
     7
 66
     1
 10
0.0
 20
0.0
 30
0.0
 70
     1
 40
0.0035
 41
0.0035
  0
VERTEX
  5
11FF
  8
0
 62
     7
 10
1.9982500000000001
 20
4.2000000000000002
 30
0.0
 42
1.0
  0
VERTEX
  5
1200
  8
0
 62
     7
 10
2.001749999999999
 20
4.2000000000000002
 30
0.0
 42
1.0
  0
SEQEND
  5
1201
  8
0
 62
     7
  0
POLYLINE
  5
63B
  8
0
 62
     7
 66
     1
 10
0.0
 20
0.0
 30
0.0
 40
0.006
 41
0.006
  0
VERTEX
  5
1202
  8
0
 62
     7
 10
2.0
 20
4.1479999999999988
 30
0.0
  0
VERTEX
  5
1203
  8
0
 62
     7
 10
3.0
 20
4.097999999999999
 30
0.0
  0
SEQEND
  5
1204
  8
0
 62
     7
  0
POLYLINE
  5
63F
  8
0
 62
     7
 66
     1
 10
0.0
 20
0.0
 30
0.0
 70
     1
 40
0.003
 41
0.003
  0
VERTEX
  5
1205
  8
0
 62
     7
 10
1.9984999999999991
 20
4.1479999999999988
 30
0.0
 42
1.0
  0
VERTEX
  5
1206
  8
0
 62
     7
 10
2.0015000000000001
 20
4.1479999999999988
 30
0.0
 42
1.0
  0
SEQEND
  5
1207
  8
0
 62
     7
  0
POLYLINE
  5
643
  8
0
 62
     7
 66
     1
 10
0.0
 20
0.0
 30
0.0
 70
     1
 40
0.003
 41
0.003
  0
VERTEX
  5
1208
  8
0
 62
     7
 10
2.9984999999999991
 20
4.097999999999999
 30
0.0
 42
1.0
  0
VERTEX
  5
1209
  8
0
 62
     7
 10
3.0015000000000001
 20
4.097999999999999
 30
0.0
 42
1.0
  0
SEQEND
  5
120A
  8
0
 62
     7
  0
POLYLINE
  5
647
  8
0
 62
     7
 66
     1
 10
0.0
 20
0.0
 30
0.0
 40
0.006
 41
0.006
  0
VERTEX
  5
120B
  8
0
 62
     7
 10
1.1000000000000001
 20
4.1479999999999988
 30
0.0
  0
VERTEX
  5
120C
  8
0
 62
     7
 10
2.0
 20
4.1479999999999988
 30
0.0
  0
SEQEND
  5
120D
  8
0
 62
     7
  0
POLYLINE
  5
64B
  8
0
 62
     7
 66
     1
 10
0.0
 20
0.0
 30
0.0
 70
     1
 40
0.003
 41
0.003
  0
VERTEX
  5
120E
  8
0
 62
     7
 10
1.0985
 20
4.1479999999999988
 30
0.0
 42
1.0
  0
VERTEX
  5
120F
  8
0
 62
     7
 10
1.101499999999999
 20
4.1479999999999988
 30
0.0
 42
1.0
  0
SEQEND
  5
1210
  8
0
 62
     7
  0
POLYLINE
  5
64F
  8
0
 62
     7
 66
     1
 10
0.0
 20
0.0
 30
0.0
 70
     1
 40
0.003
 41
0.003
  0
VERTEX
  5
1211
  8
0
 62
     7
 10
1.9984999999999991
 20
4.1479999999999988
 30
0.0
 42
1.0
  0
VERTEX
  5
1212
  8
0
 62
     7
 10
2.0015000000000001
 20
4.1479999999999988
 30
0.0
 42
1.0
  0
SEQEND
  5
1213
  8
0
 62
     7
  0
POLYLINE
  5
653
  8
0
 62
     7
 66
     1
 10
0.0
 20
0.0
 30
0.0
 40
0.006
 41
0.006
  0
VERTEX
  5
1214
  8
0
 62
     7
 10
1.1000000000000001
 20
4.1360000000000001
 30
0.0
  0
VERTEX
  5
1215
  8
0
 62
     7
 10
2.0
 20
4.1360000000000001
 30
0.0
  0
SEQEND
  5
1216
  8
0
 62
     7
  0
POLYLINE
  5
657
  8
0
 62
     7
 66
     1
 10
0.0
 20
0.0
 30
0.0
 70
     1
 40
0.003
 41
0.003
  0
VERTEX
  5
1217
  8
0
 62
     7
 10
1.0985
 20
4.1360000000000001
 30
0.0
 42
1.0
  0
VERTEX
  5
1218
  8
0
 62
     7
 10
1.101499999999999
 20
4.1360000000000001
 30
0.0
 42
1.0
  0
SEQEND
  5
1219
  8
0
 62
     7
  0
POLYLINE
  5
65B
  8
0
 62
     7
 66
     1
 10
0.0
 20
0.0
 30
0.0
 70
     1
 40
0.003
 41
0.003
  0
VERTEX
  5
121A
  8
0
 62
     7
 10
1.9984999999999991
 20
4.1360000000000001
 30
0.0
 42
1.0
  0
VERTEX
  5
121B
  8
0
 62
     7
 10
2.0015000000000001
 20
4.1360000000000001
 30
0.0
 42
1.0
  0
SEQEND
  5
121C
  8
0
 62
     7
  0
POLYLINE
  5
65F
  8
0
 62
     7
 66
     1
 10
0.0
 20
0.0
 30
0.0
 40
0.006
 41
0.006
  0
VERTEX
  5
121D
  8
0
 62
     7
 10
2.0
 20
4.1360000000000001
 30
0.0
  0
VERTEX
  5
121E
  8
0
 62
     7
 10
3.0
 20
4.0860000000000003
 30
0.0
  0
SEQEND
  5
121F
  8
0
 62
     7
  0
POLYLINE
  5
663
  8
0
 62
     7
 66
     1
 10
0.0
 20
0.0
 30
0.0
 70
     1
 40
0.003
 41
0.003
  0
VERTEX
  5
1220
  8
0
 62
     7
 10
1.9984999999999991
 20
4.1360000000000001
 30
0.0
 42
1.0
  0
VERTEX
  5
1221
  8
0
 62
     7
 10
2.0015000000000001
 20
4.1360000000000001
 30
0.0
 42
1.0
  0
SEQEND
  5
1222
  8
0
 62
     7
  0
POLYLINE
  5
667
  8
0
 62
     7
 66
     1
 10
0.0
 20
0.0
 30
0.0
 70
     1
 40
0.003
 41
0.003
  0
VERTEX
  5
1223
  8
0
 62
     7
 10
2.9984999999999991
 20
4.0860000000000003
 30
0.0
 42
1.0
  0
VERTEX
  5
1224
  8
0
 62
     7
 10
3.0015000000000001
 20
4.0860000000000003
 30
0.0
 42
1.0
  0
SEQEND
  5
1225
  8
0
 62
     7
  0
POLYLINE
  5
66B
  8
0
 62
     7
 66
     1
 10
0.0
 20
0.0
 30
0.0
 40
0.006
 41
0.006
  0
VERTEX
  5
1226
  8
0
 62
     7
 10
2.0
 20
4.1239999999999988
 30
0.0
  0
VERTEX
  5
1227
  8
0
 62
     7
 10
3.0
 20
4.073999999999999
 30
0.0
  0
SEQEND
  5
1228
  8
0
 62
     7
  0
POLYLINE
  5
66F
  8
0
 62
     7
 66
     1
 10
0.0
 20
0.0
 30
0.0
 70
     1
 40
0.003
 41
0.003
  0
VERTEX
  5
1229
  8
0
 62
     7
 10
1.9984999999999991
 20
4.1239999999999988
 30
0.0
 42
1.0
  0
VERTEX
  5
122A
  8
0
 62
     7
 10
2.0015000000000001
 20
4.1239999999999988
 30
0.0
 42
1.0
  0
SEQEND
  5
122B
  8
0
 62
     7
  0
POLYLINE
  5
673
  8
0
 62
     7
 66
     1
 10
0.0
 20
0.0
 30
0.0
 70
     1
 40
0.003
 41
0.003
  0
VERTEX
  5
122C
  8
0
 62
     7
 10
2.9984999999999991
 20
4.073999999999999
 30
0.0
 42
1.0
  0
VERTEX
  5
122D
  8
0
 62
     7
 10
3.0015000000000001
 20
4.073999999999999
 30
0.0
 42
1.0
  0
SEQEND
  5
122E
  8
0
 62
     7
  0
POLYLINE
  5
677
  8
0
 62
     7
 66
     1
 10
0.0
 20
0.0
 30
0.0
 40
0.006
 41
0.006
  0
VERTEX
  5
122F
  8
0
 62
     7
 10
1.1000000000000001
 20
4.1239999999999988
 30
0.0
  0
VERTEX
  5
1230
  8
0
 62
     7
 10
2.0
 20
4.1239999999999988
 30
0.0
  0
SEQEND
  5
1231
  8
0
 62
     7
  0
POLYLINE
  5
67B
  8
0
 62
     7
 66
     1
 10
0.0
 20
0.0
 30
0.0
 70
     1
 40
0.003
 41
0.003
  0
VERTEX
  5
1232
  8
0
 62
     7
 10
1.0985
 20
4.1239999999999988
 30
0.0
 42
1.0
  0
VERTEX
  5
1233
  8
0
 62
     7
 10
1.101499999999999
 20
4.1239999999999988
 30
0.0
 42
1.0
  0
SEQEND
  5
1234
  8
0
 62
     7
  0
POLYLINE
  5
67F
  8
0
 62
     7
 66
     1
 10
0.0
 20
0.0
 30
0.0
 70
     1
 40
0.003
 41
0.003
  0
VERTEX
  5
1235
  8
0
 62
     7
 10
1.9984999999999991
 20
4.1239999999999988
 30
0.0
 42
1.0
  0
VERTEX
  5
1236
  8
0
 62
     7
 10
2.0015000000000001
 20
4.1239999999999988
 30
0.0
 42
1.0
  0
SEQEND
  5
1237
  8
0
 62
     7
  0
POLYLINE
  5
683
  8
0
 62
     7
 66
     1
 10
0.0
 20
0.0
 30
0.0
 40
0.006
 41
0.006
  0
VERTEX
  5
1238
  8
0
 62
     7
 10
1.1000000000000001
 20
4.1120000000000001
 30
0.0
  0
VERTEX
  5
1239
  8
0
 62
     7
 10
2.0
 20
4.1120000000000001
 30
0.0
  0
SEQEND
  5
123A
  8
0
 62
     7
  0
POLYLINE
  5
687
  8
0
 62
     7
 66
     1
 10
0.0
 20
0.0
 30
0.0
 70
     1
 40
0.003
 41
0.003
  0
VERTEX
  5
123B
  8
0
 62
     7
 10
1.0985
 20
4.1120000000000001
 30
0.0
 42
1.0
  0
VERTEX
  5
123C
  8
0
 62
     7
 10
1.101499999999999
 20
4.1120000000000001
 30
0.0
 42
1.0
  0
SEQEND
  5
123D
  8
0
 62
     7
  0
POLYLINE
  5
68B
  8
0
 62
     7
 66
     1
 10
0.0
 20
0.0
 30
0.0
 70
     1
 40
0.003
 41
0.003
  0
VERTEX
  5
123E
  8
0
 62
     7
 10
1.9984999999999991
 20
4.1120000000000001
 30
0.0
 42
1.0
  0
VERTEX
  5
123F
  8
0
 62
     7
 10
2.0015000000000001
 20
4.1120000000000001
 30
0.0
 42
1.0
  0
SEQEND
  5
1240
  8
0
 62
     7
  0
POLYLINE
  5
68F
  8
0
 62
     7
 66
     1
 10
0.0
 20
0.0
 30
0.0
 40
0.006
 41
0.006
  0
VERTEX
  5
1241
  8
0
 62
     7
 10
2.0
 20
4.1120000000000001
 30
0.0
  0
VERTEX
  5
1242
  8
0
 62
     7
 10
3.0
 20
4.0620000000000003
 30
0.0
  0
SEQEND
  5
1243
  8
0
 62
     7
  0
POLYLINE
  5
693
  8
0
 62
     7
 66
     1
 10
0.0
 20
0.0
 30
0.0
 70
     1
 40
0.003
 41
0.003
  0
VERTEX
  5
1244
  8
0
 62
     7
 10
1.9984999999999991
 20
4.1120000000000001
 30
0.0
 42
1.0
  0
VERTEX
  5
1245
  8
0
 62
     7
 10
2.0015000000000001
 20
4.1120000000000001
 30
0.0
 42
1.0
  0
SEQEND
  5
1246
  8
0
 62
     7
  0
POLYLINE
  5
697
  8
0
 62
     7
 66
     1
 10
0.0
 20
0.0
 30
0.0
 70
     1
 40
0.003
 41
0.003
  0
VERTEX
  5
1247
  8
0
 62
     7
 10
2.9984999999999991
 20
4.0620000000000003
 30
0.0
 42
1.0
  0
VERTEX
  5
1248
  8
0
 62
     7
 10
3.0015000000000001
 20
4.0620000000000003
 30
0.0
 42
1.0
  0
SEQEND
  5
1249
  8
0
 62
     7
  0
POLYLINE
  5
69B
  8
0
 62
     7
 66
     1
 10
0.0
 20
0.0
 30
0.0
 40
0.006
 41
0.006
  0
VERTEX
  5
124A
  8
0
 62
     7
 10
2.0
 20
4.0999999999999988
 30
0.0
  0
VERTEX
  5
124B
  8
0
 62
     7
 10
3.0
 20
4.0499999999999989
 30
0.0
  0
SEQEND
  5
124C
  8
0
 62
     7
  0
POLYLINE
  5
69F
  8
0
 62
     7
 66
     1
 10
0.0
 20
0.0
 30
0.0
 70
     1
 40
0.003
 41
0.003
  0
VERTEX
  5
124D
  8
0
 62
     7
 10
1.9984999999999991
 20
4.0999999999999988
 30
0.0
 42
1.0
  0
VERTEX
  5
124E
  8
0
 62
     7
 10
2.0015000000000001
 20
4.0999999999999988
 30
0.0
 42
1.0
  0
SEQEND
  5
124F
  8
0
 62
     7
  0
POLYLINE
  5
6A3
  8
0
 62
     7
 66
     1
 10
0.0
 20
0.0
 30
0.0
 70
     1
 40
0.003
 41
0.003
  0
VERTEX
  5
1250
  8
0
 62
     7
 10
2.9984999999999991
 20
4.0499999999999989
 30
0.0
 42
1.0
  0
VERTEX
  5
1251
  8
0
 62
     7
 10
3.0015000000000001
 20
4.0499999999999989
 30
0.0
 42
1.0
  0
SEQEND
  5
1252
  8
0
 62
     7
  0
POLYLINE
  5
6A7
  8
0
 62
     7
 66
     1
 10
0.0
 20
0.0
 30
0.0
 40
0.006
 41
0.006
  0
VERTEX
  5
1253
  8
0
 62
     7
 10
1.1000000000000001
 20
4.0999999999999988
 30
0.0
  0
VERTEX
  5
1254
  8
0
 62
     7
 10
2.0
 20
4.0999999999999988
 30
0.0
  0
SEQEND
  5
1255
  8
0
 62
     7
  0
POLYLINE
  5
6AB
  8
0
 62
     7
 66
     1
 10
0.0
 20
0.0
 30
0.0
 70
     1
 40
0.003
 41
0.003
  0
VERTEX
  5
1256
  8
0
 62
     7
 10
1.0985
 20
4.0999999999999988
 30
0.0
 42
1.0
  0
VERTEX
  5
1257
  8
0
 62
     7
 10
1.101499999999999
 20
4.0999999999999988
 30
0.0
 42
1.0
  0
SEQEND
  5
1258
  8
0
 62
     7
  0
POLYLINE
  5
6AF
  8
0
 62
     7
 66
     1
 10
0.0
 20
0.0
 30
0.0
 70
     1
 40
0.003
 41
0.003
  0
VERTEX
  5
1259
  8
0
 62
     7
 10
1.9984999999999991
 20
4.0999999999999988
 30
0.0
 42
1.0
  0
VERTEX
  5
125A
  8
0
 62
     7
 10
2.0015000000000001
 20
4.0999999999999988
 30
0.0
 42
1.0
  0
SEQEND
  5
125B
  8
0
 62
     7
  0
POLYLINE
  5
6B3
  8
0
 62
     7
 66
     1
 10
0.0
 20
0.0
 30
0.0
 40
0.003
 41
0.003
  0
VERTEX
  5
125C
  8
0
 62
     7
 10
2.0
 20
3.823999999999999
 30
0.0
  0
VERTEX
  5
125D
  8
0
 62
     7
 10
3.0
 20
3.7739999999999991
 30
0.0
  0
SEQEND
  5
125E
  8
0
 62
     7
  0
POLYLINE
  5
6B7
  8
0
 62
     7
 66
     1
 10
0.0
 20
0.0
 30
0.0
 70
     1
 40
0.0015
 41
0.0015
  0
VERTEX
  5
125F
  8
0
 62
     7
 10
1.9992499999999991
 20
3.823999999999999
 30
0.0
 42
1.0
  0
VERTEX
  5
1260
  8
0
 62
     7
 10
2.00075
 20
3.823999999999999
 30
0.0
 42
1.0
  0
SEQEND
  5
1261
  8
0
 62
     7
  0
POLYLINE
  5
6BB
  8
0
 62
     7
 66
     1
 10
0.0
 20
0.0
 30
0.0
 70
     1
 40
0.0015
 41
0.0015
  0
VERTEX
  5
1262
  8
0
 62
     7
 10
2.9992499999999991
 20
3.7739999999999991
 30
0.0
 42
1.0
  0
VERTEX
  5
1263
  8
0
 62
     7
 10
3.00075
 20
3.7739999999999991
 30
0.0
 42
1.0
  0
SEQEND
  5
1264
  8
0
 62
     7
  0
POLYLINE
  5
6BF
  8
0
 62
     7
 66
     1
 10
0.0
 20
0.0
 30
0.0
 40
0.003
 41
0.003
  0
VERTEX
  5
1265
  8
0
 62
     7
 10
1.1000000000000001
 20
3.823999999999999
 30
0.0
  0
VERTEX
  5
1266
  8
0
 62
     7
 10
2.0
 20
3.823999999999999
 30
0.0
  0
SEQEND
  5
1267
  8
0
 62
     7
  0
POLYLINE
  5
6C3
  8
0
 62
     7
 66
     1
 10
0.0
 20
0.0
 30
0.0
 70
     1
 40
0.0015
 41
0.0015
  0
VERTEX
  5
1268
  8
0
 62
     7
 10
1.0992500000000001
 20
3.823999999999999
 30
0.0
 42
1.0
  0
VERTEX
  5
1269
  8
0
 62
     7
 10
1.100749999999999
 20
3.823999999999999
 30
0.0
 42
1.0
  0
SEQEND
  5
126A
  8
0
 62
     7
  0
POLYLINE
  5
6C7
  8
0
 62
     7
 66
     1
 10
0.0
 20
0.0
 30
0.0
 70
     1
 40
0.0015
 41
0.0015
  0
VERTEX
  5
126B
  8
0
 62
     7
 10
1.9992499999999991
 20
3.823999999999999
 30
0.0
 42
1.0
  0
VERTEX
  5
126C
  8
0
 62
     7
 10
2.00075
 20
3.823999999999999
 30
0.0
 42
1.0
  0
SEQEND
  5
126D
  8
0
 62
     7
  0
POLYLINE
  5
6CB
  8
0
 62
     7
 66
     1
 10
0.0
 20
0.0
 30
0.0
 40
0.003
 41
0.003
  0
VERTEX
  5
126E
  8
0
 62
     7
 10
1.1000000000000001
 20
3.8179999999999992
 30
0.0
  0
VERTEX
  5
126F
  8
0
 62
     7
 10
2.0
 20
3.8179999999999992
 30
0.0
  0
SEQEND
  5
1270
  8
0
 62
     7
  0
POLYLINE
  5
6CF
  8
0
 62
     7
 66
     1
 10
0.0
 20
0.0
 30
0.0
 70
     1
 40
0.0015
 41
0.0015
  0
VERTEX
  5
1271
  8
0
 62
     7
 10
1.0992500000000001
 20
3.8179999999999992
 30
0.0
 42
1.0
  0
VERTEX
  5
1272
  8
0
 62
     7
 10
1.100749999999999
 20
3.8179999999999992
 30
0.0
 42
1.0
  0
SEQEND
  5
1273
  8
0
 62
     7
  0
POLYLINE
  5
6D3
  8
0
 62
     7
 66
     1
 10
0.0
 20
0.0
 30
0.0
 70
     1
 40
0.0015
 41
0.0015
  0
VERTEX
  5
1274
  8
0
 62
     7
 10
1.9992499999999991
 20
3.8179999999999992
 30
0.0
 42
1.0
  0
VERTEX
  5
1275
  8
0
 62
     7
 10
2.00075
 20
3.8179999999999992
 30
0.0
 42
1.0
  0
SEQEND
  5
1276
  8
0
 62
     7
  0
POLYLINE
  5
6D7
  8
0
 62
     7
 66
     1
 10
0.0
 20
0.0
 30
0.0
 40
0.003
 41
0.003
  0
VERTEX
  5
1277
  8
0
 62
     7
 10
2.0
 20
3.8179999999999992
 30
0.0
  0
VERTEX
  5
1278
  8
0
 62
     7
 10
3.0
 20
3.7679999999999998
 30
0.0
  0
SEQEND
  5
1279
  8
0
 62
     7
  0
POLYLINE
  5
6DB
  8
0
 62
     7
 66
     1
 10
0.0
 20
0.0
 30
0.0
 70
     1
 40
0.0015
 41
0.0015
  0
VERTEX
  5
127A
  8
0
 62
     7
 10
1.9992499999999991
 20
3.8179999999999992
 30
0.0
 42
1.0
  0
VERTEX
  5
127B
  8
0
 62
     7
 10
2.00075
 20
3.8179999999999992
 30
0.0
 42
1.0
  0
SEQEND
  5
127C
  8
0
 62
     7
  0
POLYLINE
  5
6DF
  8
0
 62
     7
 66
     1
 10
0.0
 20
0.0
 30
0.0
 70
     1
 40
0.0015
 41
0.0015
  0
VERTEX
  5
127D
  8
0
 62
     7
 10
2.9992499999999991
 20
3.7679999999999998
 30
0.0
 42
1.0
  0
VERTEX
  5
127E
  8
0
 62
     7
 10
3.00075
 20
3.7679999999999998
 30
0.0
 42
1.0
  0
SEQEND
  5
127F
  8
0
 62
     7
  0
POLYLINE
  5
6E3
  8
0
 62
     7
 66
     1
 10
0.0
 20
0.0
 30
0.0
 40
0.003
 41
0.003
  0
VERTEX
  5
1280
  8
0
 62
     7
 10
2.0
 20
3.8119999999999989
 30
0.0
  0
VERTEX
  5
1281
  8
0
 62
     7
 10
3.0
 20
3.762
 30
0.0
  0
SEQEND
  5
1282
  8
0
 62
     7
  0
POLYLINE
  5
6E7
  8
0
 62
     7
 66
     1
 10
0.0
 20
0.0
 30
0.0
 70
     1
 40
0.0015
 41
0.0015
  0
VERTEX
  5
1283
  8
0
 62
     7
 10
1.9992499999999991
 20
3.8119999999999989
 30
0.0
 42
1.0
  0
VERTEX
  5
1284
  8
0
 62
     7
 10
2.00075
 20
3.8119999999999989
 30
0.0
 42
1.0
  0
SEQEND
  5
1285
  8
0
 62
     7
  0
POLYLINE
  5
6EB
  8
0
 62
     7
 66
     1
 10
0.0
 20
0.0
 30
0.0
 70
     1
 40
0.0015
 41
0.0015
  0
VERTEX
  5
1286
  8
0
 62
     7
 10
2.9992499999999991
 20
3.762
 30
0.0
 42
1.0
  0
VERTEX
  5
1287
  8
0
 62
     7
 10
3.00075
 20
3.762
 30
0.0
 42
1.0
  0
SEQEND
  5
1288
  8
0
 62
     7
  0
POLYLINE
  5
6EF
  8
0
 62
     7
 66
     1
 10
0.0
 20
0.0
 30
0.0
 40
0.003
 41
0.003
  0
VERTEX
  5
1289
  8
0
 62
     7
 10
1.1000000000000001
 20
3.8119999999999989
 30
0.0
  0
VERTEX
  5
128A
  8
0
 62
     7
 10
2.0
 20
3.8119999999999989
 30
0.0
  0
SEQEND
  5
128B
  8
0
 62
     7
  0
POLYLINE
  5
6F3
  8
0
 62
     7
 66
     1
 10
0.0
 20
0.0
 30
0.0
 70
     1
 40
0.0015
 41
0.0015
  0
VERTEX
  5
128C
  8
0
 62
     7
 10
1.0992500000000001
 20
3.8119999999999989
 30
0.0
 42
1.0
  0
VERTEX
  5
128D
  8
0
 62
     7
 10
1.100749999999999
 20
3.8119999999999989
 30
0.0
 42
1.0
  0
SEQEND
  5
128E
  8
0
 62
     7
  0
POLYLINE
  5
6F7
  8
0
 62
     7
 66
     1
 10
0.0
 20
0.0
 30
0.0
 70
     1
 40
0.0015
 41
0.0015
  0
VERTEX
  5
128F
  8
0
 62
     7
 10
1.9992499999999991
 20
3.8119999999999989
 30
0.0
 42
1.0
  0
VERTEX
  5
1290
  8
0
 62
     7
 10
2.00075
 20
3.8119999999999989
 30
0.0
 42
1.0
  0
SEQEND
  5
1291
  8
0
 62
     7
  0
POLYLINE
  5
6FB
  8
0
 62
     7
 66
     1
 10
0.0
 20
0.0
 30
0.0
 40
0.003
 41
0.003
  0
VERTEX
  5
1292
  8
0
 62
     7
 10
1.1000000000000001
 20
3.806
 30
0.0
  0
VERTEX
  5
1293
  8
0
 62
     7
 10
2.0
 20
3.806
 30
0.0
  0
SEQEND
  5
1294
  8
0
 62
     7
  0
POLYLINE
  5
6FF
  8
0
 62
     7
 66
     1
 10
0.0
 20
0.0
 30
0.0
 70
     1
 40
0.0015
 41
0.0015
  0
VERTEX
  5
1295
  8
0
 62
     7
 10
1.0992500000000001
 20
3.806
 30
0.0
 42
1.0
  0
VERTEX
  5
1296
  8
0
 62
     7
 10
1.100749999999999
 20
3.806
 30
0.0
 42
1.0
  0
SEQEND
  5
1297
  8
0
 62
     7
  0
POLYLINE
  5
703
  8
0
 62
     7
 66
     1
 10
0.0
 20
0.0
 30
0.0
 70
     1
 40
0.0015
 41
0.0015
  0
VERTEX
  5
1298
  8
0
 62
     7
 10
1.9992499999999991
 20
3.806
 30
0.0
 42
1.0
  0
VERTEX
  5
1299
  8
0
 62
     7
 10
2.00075
 20
3.806
 30
0.0
 42
1.0
  0
SEQEND
  5
129A
  8
0
 62
     7
  0
POLYLINE
  5
707
  8
0
 62
     7
 66
     1
 10
0.0
 20
0.0
 30
0.0
 40
0.003
 41
0.003
  0
VERTEX
  5
129B
  8
0
 62
     7
 10
2.0
 20
3.806
 30
0.0
  0
VERTEX
  5
129C
  8
0
 62
     7
 10
3.0
 20
3.7559999999999998
 30
0.0
  0
SEQEND
  5
129D
  8
0
 62
     7
  0
POLYLINE
  5
70B
  8
0
 62
     7
 66
     1
 10
0.0
 20
0.0
 30
0.0
 70
     1
 40
0.0015
 41
0.0015
  0
VERTEX
  5
129E
  8
0
 62
     7
 10
1.9992499999999991
 20
3.806
 30
0.0
 42
1.0
  0
VERTEX
  5
129F
  8
0
 62
     7
 10
2.00075
 20
3.806
 30
0.0
 42
1.0
  0
SEQEND
  5
12A0
  8
0
 62
     7
  0
POLYLINE
  5
70F
  8
0
 62
     7
 66
     1
 10
0.0
 20
0.0
 30
0.0
 70
     1
 40
0.0015
 41
0.0015
  0
VERTEX
  5
12A1
  8
0
 62
     7
 10
2.9992499999999991
 20
3.7559999999999998
 30
0.0
 42
1.0
  0
VERTEX
  5
12A2
  8
0
 62
     7
 10
3.00075
 20
3.7559999999999998
 30
0.0
 42
1.0
  0
SEQEND
  5
12A3
  8
0
 62
     7
  0
POLYLINE
  5
713
  8
0
 62
     7
 66
     1
 10
0.0
 20
0.0
 30
0.0
 40
0.003
 41
0.003
  0
VERTEX
  5
12A4
  8
0
 62
     7
 10
2.0
 20
3.7999999999999989
 30
0.0
  0
VERTEX
  5
12A5
  8
0
 62
     7
 10
3.0
 20
3.75
 30
0.0
  0
SEQEND
  5
12A6
  8
0
 62
     7
  0
POLYLINE
  5
717
  8
0
 62
     7
 66
     1
 10
0.0
 20
0.0
 30
0.0
 70
     1
 40
0.0015
 41
0.0015
  0
VERTEX
  5
12A7
  8
0
 62
     7
 10
1.9992499999999991
 20
3.7999999999999989
 30
0.0
 42
1.0
  0
VERTEX
  5
12A8
  8
0
 62
     7
 10
2.00075
 20
3.7999999999999989
 30
0.0
 42
1.0
  0
SEQEND
  5
12A9
  8
0
 62
     7
  0
POLYLINE
  5
71B
  8
0
 62
     7
 66
     1
 10
0.0
 20
0.0
 30
0.0
 70
     1
 40
0.0015
 41
0.0015
  0
VERTEX
  5
12AA
  8
0
 62
     7
 10
2.9992499999999991
 20
3.75
 30
0.0
 42
1.0
  0
VERTEX
  5
12AB
  8
0
 62
     7
 10
3.00075
 20
3.75
 30
0.0
 42
1.0
  0
SEQEND
  5
12AC
  8
0
 62
     7
  0
POLYLINE
  5
71F
  8
0
 62
     7
 66
     1
 10
0.0
 20
0.0
 30
0.0
 40
0.003
 41
0.003
  0
VERTEX
  5
12AD
  8
0
 62
     7
 10
1.1000000000000001
 20
3.7999999999999989
 30
0.0
  0
VERTEX
  5
12AE
  8
0
 62
     7
 10
2.0
 20
3.7999999999999989
 30
0.0
  0
SEQEND
  5
12AF
  8
0
 62
     7
  0
POLYLINE
  5
723
  8
0
 62
     7
 66
     1
 10
0.0
 20
0.0
 30
0.0
 70
     1
 40
0.0015
 41
0.0015
  0
VERTEX
  5
12B0
  8
0
 62
     7
 10
1.0992500000000001
 20
3.7999999999999989
 30
0.0
 42
1.0
  0
VERTEX
  5
12B1
  8
0
 62
     7
 10
1.100749999999999
 20
3.7999999999999989
 30
0.0
 42
1.0
  0
SEQEND
  5
12B2
  8
0
 62
     7
  0
POLYLINE
  5
727
  8
0
 62
     7
 66
     1
 10
0.0
 20
0.0
 30
0.0
 70
     1
 40
0.0015
 41
0.0015
  0
VERTEX
  5
12B3
  8
0
 62
     7
 10
1.9992499999999991
 20
3.7999999999999989
 30
0.0
 42
1.0
  0
VERTEX
  5
12B4
  8
0
 62
     7
 10
2.00075
 20
3.7999999999999989
 30
0.0
 42
1.0
  0
SEQEND
  5
12B5
  8
0
 62
     7
  0
POLYLINE
  5
72B
  8
0
 62
     7
 66
     1
 10
0.0
 20
0.0
 30
0.0
 40
0.002
 41
0.002
  0
VERTEX
  5
12B6
  8
0
 62
     7
 10
2.0
 20
3.7160000000000002
 30
0.0
  0
VERTEX
  5
12B7
  8
0
 62
     7
 10
3.0
 20
3.6659999999999999
 30
0.0
  0
SEQEND
  5
12B8
  8
0
 62
     7
  0
POLYLINE
  5
72F
  8
0
 62
     7
 66
     1
 10
0.0
 20
0.0
 30
0.0
 70
     1
 40
0.001
 41
0.001
  0
VERTEX
  5
12B9
  8
0
 62
     7
 10
1.9995000000000001
 20
3.7160000000000002
 30
0.0
 42
1.0
  0
VERTEX
  5
12BA
  8
0
 62
     7
 10
2.0005000000000002
 20
3.7160000000000002
 30
0.0
 42
1.0
  0
SEQEND
  5
12BB
  8
0
 62
     7
  0
POLYLINE
  5
733
  8
0
 62
     7
 66
     1
 10
0.0
 20
0.0
 30
0.0
 70
     1
 40
0.001
 41
0.001
  0
VERTEX
  5
12BC
  8
0
 62
     7
 10
2.9994999999999989
 20
3.6659999999999999
 30
0.0
 42
1.0
  0
VERTEX
  5
12BD
  8
0
 62
     7
 10
3.0005000000000002
 20
3.6659999999999999
 30
0.0
 42
1.0
  0
SEQEND
  5
12BE
  8
0
 62
     7
  0
POLYLINE
  5
737
  8
0
 62
     7
 66
     1
 10
0.0
 20
0.0
 30
0.0
 40
0.002
 41
0.002
  0
VERTEX
  5
12BF
  8
0
 62
     7
 10
1.1000000000000001
 20
3.7160000000000002
 30
0.0
  0
VERTEX
  5
12C0
  8
0
 62
     7
 10
2.0
 20
3.7160000000000002
 30
0.0
  0
SEQEND
  5
12C1
  8
0
 62
     7
  0
POLYLINE
  5
73B
  8
0
 62
     7
 66
     1
 10
0.0
 20
0.0
 30
0.0
 70
     1
 40
0.001
 41
0.001
  0
VERTEX
  5
12C2
  8
0
 62
     7
 10
1.099499999999999
 20
3.7160000000000002
 30
0.0
 42
1.0
  0
VERTEX
  5
12C3
  8
0
 62
     7
 10
1.1005
 20
3.7160000000000002
 30
0.0
 42
1.0
  0
SEQEND
  5
12C4
  8
0
 62
     7
  0
POLYLINE
  5
73F
  8
0
 62
     7
 66
     1
 10
0.0
 20
0.0
 30
0.0
 70
     1
 40
0.001
 41
0.001
  0
VERTEX
  5
12C5
  8
0
 62
     7
 10
1.9995000000000001
 20
3.7160000000000002
 30
0.0
 42
1.0
  0
VERTEX
  5
12C6
  8
0
 62
     7
 10
2.0005000000000002
 20
3.7160000000000002
 30
0.0
 42
1.0
  0
SEQEND
  5
12C7
  8
0
 62
     7
  0
POLYLINE
  5
743
  8
0
 62
     7
 66
     1
 10
0.0
 20
0.0
 30
0.0
 40
0.002
 41
0.002
  0
VERTEX
  5
12C8
  8
0
 62
     7
 10
1.1000000000000001
 20
3.7119999999999989
 30
0.0
  0
VERTEX
  5
12C9
  8
0
 62
     7
 10
2.0
 20
3.7119999999999989
 30
0.0
  0
SEQEND
  5
12CA
  8
0
 62
     7
  0
POLYLINE
  5
747
  8
0
 62
     7
 66
     1
 10
0.0
 20
0.0
 30
0.0
 70
     1
 40
0.001
 41
0.001
  0
VERTEX
  5
12CB
  8
0
 62
     7
 10
1.099499999999999
 20
3.7119999999999989
 30
0.0
 42
1.0
  0
VERTEX
  5
12CC
  8
0
 62
     7
 10
1.1005
 20
3.7119999999999989
 30
0.0
 42
1.0
  0
SEQEND
  5
12CD
  8
0
 62
     7
  0
POLYLINE
  5
74B
  8
0
 62
     7
 66
     1
 10
0.0
 20
0.0
 30
0.0
 70
     1
 40
0.001
 41
0.001
  0
VERTEX
  5
12CE
  8
0
 62
     7
 10
1.9995000000000001
 20
3.7119999999999989
 30
0.0
 42
1.0
  0
VERTEX
  5
12CF
  8
0
 62
     7
 10
2.0005000000000002
 20
3.7119999999999989
 30
0.0
 42
1.0
  0
SEQEND
  5
12D0
  8
0
 62
     7
  0
POLYLINE
  5
74F
  8
0
 62
     7
 66
     1
 10
0.0
 20
0.0
 30
0.0
 40
0.002
 41
0.002
  0
VERTEX
  5
12D1
  8
0
 62
     7
 10
2.0
 20
3.7119999999999989
 30
0.0
  0
VERTEX
  5
12D2
  8
0
 62
     7
 10
3.0
 20
3.661999999999999
 30
0.0
  0
SEQEND
  5
12D3
  8
0
 62
     7
  0
POLYLINE
  5
753
  8
0
 62
     7
 66
     1
 10
0.0
 20
0.0
 30
0.0
 70
     1
 40
0.001
 41
0.001
  0
VERTEX
  5
12D4
  8
0
 62
     7
 10
1.9995000000000001
 20
3.7119999999999989
 30
0.0
 42
1.0
  0
VERTEX
  5
12D5
  8
0
 62
     7
 10
2.0005000000000002
 20
3.7119999999999989
 30
0.0
 42
1.0
  0
SEQEND
  5
12D6
  8
0
 62
     7
  0
POLYLINE
  5
757
  8
0
 62
     7
 66
     1
 10
0.0
 20
0.0
 30
0.0
 70
     1
 40
0.001
 41
0.001
  0
VERTEX
  5
12D7
  8
0
 62
     7
 10
2.9994999999999989
 20
3.661999999999999
 30
0.0
 42
1.0
  0
VERTEX
  5
12D8
  8
0
 62
     7
 10
3.0005000000000002
 20
3.661999999999999
 30
0.0
 42
1.0
  0
SEQEND
  5
12D9
  8
0
 62
     7
  0
POLYLINE
  5
75B
  8
0
 62
     7
 66
     1
 10
0.0
 20
0.0
 30
0.0
 40
0.002
 41
0.002
  0
VERTEX
  5
12DA
  8
0
 62
     7
 10
2.0
 20
3.7080000000000002
 30
0.0
  0
VERTEX
  5
12DB
  8
0
 62
     7
 10
3.0
 20
3.657999999999999
 30
0.0
  0
SEQEND
  5
12DC
  8
0
 62
     7
  0
POLYLINE
  5
75F
  8
0
 62
     7
 66
     1
 10
0.0
 20
0.0
 30
0.0
 70
     1
 40
0.001
 41
0.001
  0
VERTEX
  5
12DD
  8
0
 62
     7
 10
1.9995000000000001
 20
3.7080000000000002
 30
0.0
 42
1.0
  0
VERTEX
  5
12DE
  8
0
 62
     7
 10
2.0005000000000002
 20
3.7080000000000002
 30
0.0
 42
1.0
  0
SEQEND
  5
12DF
  8
0
 62
     7
  0
POLYLINE
  5
763
  8
0
 62
     7
 66
     1
 10
0.0
 20
0.0
 30
0.0
 70
     1
 40
0.001
 41
0.001
  0
VERTEX
  5
12E0
  8
0
 62
     7
 10
2.9994999999999989
 20
3.657999999999999
 30
0.0
 42
1.0
  0
VERTEX
  5
12E1
  8
0
 62
     7
 10
3.0005000000000002
 20
3.657999999999999
 30
0.0
 42
1.0
  0
SEQEND
  5
12E2
  8
0
 62
     7
  0
POLYLINE
  5
767
  8
0
 62
     7
 66
     1
 10
0.0
 20
0.0
 30
0.0
 40
0.002
 41
0.002
  0
VERTEX
  5
12E3
  8
0
 62
     7
 10
1.1000000000000001
 20
3.7080000000000002
 30
0.0
  0
VERTEX
  5
12E4
  8
0
 62
     7
 10
2.0
 20
3.7080000000000002
 30
0.0
  0
SEQEND
  5
12E5
  8
0
 62
     7
  0
POLYLINE
  5
76B
  8
0
 62
     7
 66
     1
 10
0.0
 20
0.0
 30
0.0
 70
     1
 40
0.001
 41
0.001
  0
VERTEX
  5
12E6
  8
0
 62
     7
 10
1.099499999999999
 20
3.7080000000000002
 30
0.0
 42
1.0
  0
VERTEX
  5
12E7
  8
0
 62
     7
 10
1.1005
 20
3.7080000000000002
 30
0.0
 42
1.0
  0
SEQEND
  5
12E8
  8
0
 62
     7
  0
POLYLINE
  5
76F
  8
0
 62
     7
 66
     1
 10
0.0
 20
0.0
 30
0.0
 70
     1
 40
0.001
 41
0.001
  0
VERTEX
  5
12E9
  8
0
 62
     7
 10
1.9995000000000001
 20
3.7080000000000002
 30
0.0
 42
1.0
  0
VERTEX
  5
12EA
  8
0
 62
     7
 10
2.0005000000000002
 20
3.7080000000000002
 30
0.0
 42
1.0
  0
SEQEND
  5
12EB
  8
0
 62
     7
  0
POLYLINE
  5
773
  8
0
 62
     7
 66
     1
 10
0.0
 20
0.0
 30
0.0
 40
0.002
 41
0.002
  0
VERTEX
  5
12EC
  8
0
 62
     7
 10
1.1000000000000001
 20
3.7039999999999988
 30
0.0
  0
VERTEX
  5
12ED
  8
0
 62
     7
 10
2.0
 20
3.7039999999999988
 30
0.0
  0
SEQEND
  5
12EE
  8
0
 62
     7
  0
POLYLINE
  5
777
  8
0
 62
     7
 66
     1
 10
0.0
 20
0.0
 30
0.0
 70
     1
 40
0.001
 41
0.001
  0
VERTEX
  5
12EF
  8
0
 62
     7
 10
1.099499999999999
 20
3.7039999999999988
 30
0.0
 42
1.0
  0
VERTEX
  5
12F0
  8
0
 62
     7
 10
1.1005
 20
3.7039999999999988
 30
0.0
 42
1.0
  0
SEQEND
  5
12F1
  8
0
 62
     7
  0
POLYLINE
  5
77B
  8
0
 62
     7
 66
     1
 10
0.0
 20
0.0
 30
0.0
 70
     1
 40
0.001
 41
0.001
  0
VERTEX
  5
12F2
  8
0
 62
     7
 10
1.9995000000000001
 20
3.7039999999999988
 30
0.0
 42
1.0
  0
VERTEX
  5
12F3
  8
0
 62
     7
 10
2.0005000000000002
 20
3.7039999999999988
 30
0.0
 42
1.0
  0
SEQEND
  5
12F4
  8
0
 62
     7
  0
POLYLINE
  5
77F
  8
0
 62
     7
 66
     1
 10
0.0
 20
0.0
 30
0.0
 40
0.002
 41
0.002
  0
VERTEX
  5
12F5
  8
0
 62
     7
 10
2.0
 20
3.7039999999999988
 30
0.0
  0
VERTEX
  5
12F6
  8
0
 62
     7
 10
3.0
 20
3.653999999999999
 30
0.0
  0
SEQEND
  5
12F7
  8
0
 62
     7
  0
POLYLINE
  5
783
  8
0
 62
     7
 66
     1
 10
0.0
 20
0.0
 30
0.0
 70
     1
 40
0.001
 41
0.001
  0
VERTEX
  5
12F8
  8
0
 62
     7
 10
1.9995000000000001
 20
3.7039999999999988
 30
0.0
 42
1.0
  0
VERTEX
  5
12F9
  8
0
 62
     7
 10
2.0005000000000002
 20
3.7039999999999988
 30
0.0
 42
1.0
  0
SEQEND
  5
12FA
  8
0
 62
     7
  0
POLYLINE
  5
787
  8
0
 62
     7
 66
     1
 10
0.0
 20
0.0
 30
0.0
 70
     1
 40
0.001
 41
0.001
  0
VERTEX
  5
12FB
  8
0
 62
     7
 10
2.9994999999999989
 20
3.653999999999999
 30
0.0
 42
1.0
  0
VERTEX
  5
12FC
  8
0
 62
     7
 10
3.0005000000000002
 20
3.653999999999999
 30
0.0
 42
1.0
  0
SEQEND
  5
12FD
  8
0
 62
     7
  0
POLYLINE
  5
78B
  8
0
 62
     7
 66
     1
 10
0.0
 20
0.0
 30
0.0
 40
0.002
 41
0.002
  0
VERTEX
  5
12FE
  8
0
 62
     7
 10
2.0
 20
3.7000000000000002
 30
0.0
  0
VERTEX
  5
12FF
  8
0
 62
     7
 10
3.0
 20
3.649999999999999
 30
0.0
  0
SEQEND
  5
1300
  8
0
 62
     7
  0
POLYLINE
  5
78F
  8
0
 62
     7
 66
     1
 10
0.0
 20
0.0
 30
0.0
 70
     1
 40
0.001
 41
0.001
  0
VERTEX
  5
1301
  8
0
 62
     7
 10
1.9995000000000001
 20
3.7000000000000002
 30
0.0
 42
1.0
  0
VERTEX
  5
1302
  8
0
 62
     7
 10
2.0005000000000002
 20
3.7000000000000002
 30
0.0
 42
1.0
  0
SEQEND
  5
1303
  8
0
 62
     7
  0
POLYLINE
  5
793
  8
0
 62
     7
 66
     1
 10
0.0
 20
0.0
 30
0.0
 70
     1
 40
0.001
 41
0.001
  0
VERTEX
  5
1304
  8
0
 62
     7
 10
2.9994999999999989
 20
3.649999999999999
 30
0.0
 42
1.0
  0
VERTEX
  5
1305
  8
0
 62
     7
 10
3.0005000000000002
 20
3.649999999999999
 30
0.0
 42
1.0
  0
SEQEND
  5
1306
  8
0
 62
     7
  0
POLYLINE
  5
797
  8
0
 62
     7
 66
     1
 10
0.0
 20
0.0
 30
0.0
 40
0.002
 41
0.002
  0
VERTEX
  5
1307
  8
0
 62
     7
 10
1.1000000000000001
 20
3.7000000000000002
 30
0.0
  0
VERTEX
  5
1308
  8
0
 62
     7
 10
2.0
 20
3.7000000000000002
 30
0.0
  0
SEQEND
  5
1309
  8
0
 62
     7
  0
POLYLINE
  5
79B
  8
0
 62
     7
 66
     1
 10
0.0
 20
0.0
 30
0.0
 70
     1
 40
0.001
 41
0.001
  0
VERTEX
  5
130A
  8
0
 62
     7
 10
1.099499999999999
 20
3.7000000000000002
 30
0.0
 42
1.0
  0
VERTEX
  5
130B
  8
0
 62
     7
 10
1.1005
 20
3.7000000000000002
 30
0.0
 42
1.0
  0
SEQEND
  5
130C
  8
0
 62
     7
  0
POLYLINE
  5
79F
  8
0
 62
     7
 66
     1
 10
0.0
 20
0.0
 30
0.0
 70
     1
 40
0.001
 41
0.001
  0
VERTEX
  5
130D
  8
0
 62
     7
 10
1.9995000000000001
 20
3.7000000000000002
 30
0.0
 42
1.0
  0
VERTEX
  5
130E
  8
0
 62
     7
 10
2.0005000000000002
 20
3.7000000000000002
 30
0.0
 42
1.0
  0
SEQEND
  5
130F
  8
0
 62
     7
  0
POLYLINE
  5
7A3
  8
0
 62
     7
 66
     1
 10
0.0
 20
0.0
 30
0.0
 40
0.001
 41
0.001
  0
VERTEX
  5
1310
  8
0
 62
     7
 10
1.1000000000000001
 20
3.6080000000000001
 30
0.0
  0
VERTEX
  5
1311
  8
0
 62
     7
 10
2.0
 20
3.6080000000000001
 30
0.0
  0
SEQEND
  5
1312
  8
0
 62
     7
  0
POLYLINE
  5
7A7
  8
0
 62
     7
 66
     1
 10
0.0
 20
0.0
 30
0.0
 70
     1
 40
0.0005
 41
0.0005
  0
VERTEX
  5
1313
  8
0
 62
     7
 10
1.09975
 20
3.6080000000000001
 30
0.0
 42
1.0
  0
VERTEX
  5
1314
  8
0
 62
     7
 10
1.1002499999999991
 20
3.6080000000000001
 30
0.0
 42
1.0
  0
SEQEND
  5
1315
  8
0
 62
     7
  0
POLYLINE
  5
7AB
  8
0
 62
     7
 66
     1
 10
0.0
 20
0.0
 30
0.0
 70
     1
 40
0.0005
 41
0.0005
  0
VERTEX
  5
1316
  8
0
 62
     7
 10
1.999749999999999
 20
3.6080000000000001
 30
0.0
 42
1.0
  0
VERTEX
  5
1317
  8
0
 62
     7
 10
2.000249999999999
 20
3.6080000000000001
 30
0.0
 42
1.0
  0
SEQEND
  5
1318
  8
0
 62
     7
  0
POLYLINE
  5
7AF
  8
0
 62
     7
 66
     1
 10
0.0
 20
0.0
 30
0.0
 40
0.001
 41
0.001
  0
VERTEX
  5
1319
  8
0
 62
     7
 10
2.0
 20
3.6080000000000001
 30
0.0
  0
VERTEX
  5
131A
  8
0
 62
     7
 10
3.0
 20
3.5579999999999998
 30
0.0
  0
SEQEND
  5
131B
  8
0
 62
     7
  0
POLYLINE
  5
7B3
  8
0
 62
     7
 66
     1
 10
0.0
 20
0.0
 30
0.0
 70
     1
 40
0.0005
 41
0.0005
  0
VERTEX
  5
131C
  8
0
 62
     7
 10
1.999749999999999
 20
3.6080000000000001
 30
0.0
 42
1.0
  0
VERTEX
  5
131D
  8
0
 62
     7
 10
2.000249999999999
 20
3.6080000000000001
 30
0.0
 42
1.0
  0
SEQEND
  5
131E
  8
0
 62
     7
  0
POLYLINE
  5
7B7
  8
0
 62
     7
 66
     1
 10
0.0
 20
0.0
 30
0.0
 70
     1
 40
0.0005
 41
0.0005
  0
VERTEX
  5
131F
  8
0
 62
     7
 10
2.9997500000000001
 20
3.5579999999999998
 30
0.0
 42
1.0
  0
VERTEX
  5
1320
  8
0
 62
     7
 10
3.000249999999999
 20
3.5579999999999998
 30
0.0
 42
1.0
  0
SEQEND
  5
1321
  8
0
 62
     7
  0
POLYLINE
  5
7BB
  8
0
 62
     7
 66
     1
 10
0.0
 20
0.0
 30
0.0
 40
0.001
 41
0.001
  0
VERTEX
  5
1322
  8
0
 62
     7
 10
2.0
 20
3.6059999999999999
 30
0.0
  0
VERTEX
  5
1323
  8
0
 62
     7
 10
3.0
 20
3.556
 30
0.0
  0
SEQEND
  5
1324
  8
0
 62
     7
  0
POLYLINE
  5
7BF
  8
0
 62
     7
 66
     1
 10
0.0
 20
0.0
 30
0.0
 70
     1
 40
0.0005
 41
0.0005
  0
VERTEX
  5
1325
  8
0
 62
     7
 10
1.999749999999999
 20
3.6059999999999999
 30
0.0
 42
1.0
  0
VERTEX
  5
1326
  8
0
 62
     7
 10
2.000249999999999
 20
3.6059999999999999
 30
0.0
 42
1.0
  0
SEQEND
  5
1327
  8
0
 62
     7
  0
POLYLINE
  5
7C3
  8
0
 62
     7
 66
     1
 10
0.0
 20
0.0
 30
0.0
 70
     1
 40
0.0005
 41
0.0005
  0
VERTEX
  5
1328
  8
0
 62
     7
 10
2.9997500000000001
 20
3.556
 30
0.0
 42
1.0
  0
VERTEX
  5
1329
  8
0
 62
     7
 10
3.000249999999999
 20
3.556
 30
0.0
 42
1.0
  0
SEQEND
  5
132A
  8
0
 62
     7
  0
POLYLINE
  5
7C7
  8
0
 62
     7
 66
     1
 10
0.0
 20
0.0
 30
0.0
 40
0.001
 41
0.001
  0
VERTEX
  5
132B
  8
0
 62
     7
 10
1.1000000000000001
 20
3.6059999999999999
 30
0.0
  0
VERTEX
  5
132C
  8
0
 62
     7
 10
2.0
 20
3.6059999999999999
 30
0.0
  0
SEQEND
  5
132D
  8
0
 62
     7
  0
POLYLINE
  5
7CB
  8
0
 62
     7
 66
     1
 10
0.0
 20
0.0
 30
0.0
 70
     1
 40
0.0005
 41
0.0005
  0
VERTEX
  5
132E
  8
0
 62
     7
 10
1.09975
 20
3.6059999999999999
 30
0.0
 42
1.0
  0
VERTEX
  5
132F
  8
0
 62
     7
 10
1.1002499999999991
 20
3.6059999999999999
 30
0.0
 42
1.0
  0
SEQEND
  5
1330
  8
0
 62
     7
  0
POLYLINE
  5
7CF
  8
0
 62
     7
 66
     1
 10
0.0
 20
0.0
 30
0.0
 70
     1
 40
0.0005
 41
0.0005
  0
VERTEX
  5
1331
  8
0
 62
     7
 10
1.999749999999999
 20
3.6059999999999999
 30
0.0
 42
1.0
  0
VERTEX
  5
1332
  8
0
 62
     7
 10
2.000249999999999
 20
3.6059999999999999
 30
0.0
 42
1.0
  0
SEQEND
  5
1333
  8
0
 62
     7
  0
POLYLINE
  5
7D3
  8
0
 62
     7
 66
     1
 10
0.0
 20
0.0
 30
0.0
 40
0.001
 41
0.001
  0
VERTEX
  5
1334
  8
0
 62
     7
 10
1.1000000000000001
 20
3.6039999999999992
 30
0.0
  0
VERTEX
  5
1335
  8
0
 62
     7
 10
2.0
 20
3.6039999999999992
 30
0.0
  0
SEQEND
  5
1336
  8
0
 62
     7
  0
POLYLINE
  5
7D7
  8
0
 62
     7
 66
     1
 10
0.0
 20
0.0
 30
0.0
 70
     1
 40
0.0005
 41
0.0005
  0
VERTEX
  5
1337
  8
0
 62
     7
 10
1.09975
 20
3.6039999999999992
 30
0.0
 42
1.0
  0
VERTEX
  5
1338
  8
0
 62
     7
 10
1.1002499999999991
 20
3.6039999999999992
 30
0.0
 42
1.0
  0
SEQEND
  5
1339
  8
0
 62
     7
  0
POLYLINE
  5
7DB
  8
0
 62
     7
 66
     1
 10
0.0
 20
0.0
 30
0.0
 70
     1
 40
0.0005
 41
0.0005
  0
VERTEX
  5
133A
  8
0
 62
     7
 10
1.999749999999999
 20
3.6039999999999992
 30
0.0
 42
1.0
  0
VERTEX
  5
133B
  8
0
 62
     7
 10
2.000249999999999
 20
3.6039999999999992
 30
0.0
 42
1.0
  0
SEQEND
  5
133C
  8
0
 62
     7
  0
POLYLINE
  5
7DF
  8
0
 62
     7
 66
     1
 10
0.0
 20
0.0
 30
0.0
 40
0.001
 41
0.001
  0
VERTEX
  5
133D
  8
0
 62
     7
 10
2.0
 20
3.6039999999999992
 30
0.0
  0
VERTEX
  5
133E
  8
0
 62
     7
 10
3.0
 20
3.5539999999999989
 30
0.0
  0
SEQEND
  5
133F
  8
0
 62
     7
  0
POLYLINE
  5
7E3
  8
0
 62
     7
 66
     1
 10
0.0
 20
0.0
 30
0.0
 70
     1
 40
0.0005
 41
0.0005
  0
VERTEX
  5
1340
  8
0
 62
     7
 10
1.999749999999999
 20
3.6039999999999992
 30
0.0
 42
1.0
  0
VERTEX
  5
1341
  8
0
 62
     7
 10
2.000249999999999
 20
3.6039999999999992
 30
0.0
 42
1.0
  0
SEQEND
  5
1342
  8
0
 62
     7
  0
POLYLINE
  5
7E7
  8
0
 62
     7
 66
     1
 10
0.0
 20
0.0
 30
0.0
 70
     1
 40
0.0005
 41
0.0005
  0
VERTEX
  5
1343
  8
0
 62
     7
 10
2.9997500000000001
 20
3.5539999999999989
 30
0.0
 42
1.0
  0
VERTEX
  5
1344
  8
0
 62
     7
 10
3.000249999999999
 20
3.5539999999999989
 30
0.0
 42
1.0
  0
SEQEND
  5
1345
  8
0
 62
     7
  0
POLYLINE
  5
7EB
  8
0
 62
     7
 66
     1
 10
0.0
 20
0.0
 30
0.0
 40
0.001
 41
0.001
  0
VERTEX
  5
1346
  8
0
 62
     7
 10
1.1000000000000001
 20
3.601999999999999
 30
0.0
  0
VERTEX
  5
1347
  8
0
 62
     7
 10
2.0
 20
3.601999999999999
 30
0.0
  0
SEQEND
  5
1348
  8
0
 62
     7
  0
POLYLINE
  5
7EF
  8
0
 62
     7
 66
     1
 10
0.0
 20
0.0
 30
0.0
 70
     1
 40
0.0005
 41
0.0005
  0
VERTEX
  5
1349
  8
0
 62
     7
 10
1.09975
 20
3.601999999999999
 30
0.0
 42
1.0
  0
VERTEX
  5
134A
  8
0
 62
     7
 10
1.1002499999999991
 20
3.601999999999999
 30
0.0
 42
1.0
  0
SEQEND
  5
134B
  8
0
 62
     7
  0
POLYLINE
  5
7F3
  8
0
 62
     7
 66
     1
 10
0.0
 20
0.0
 30
0.0
 70
     1
 40
0.0005
 41
0.0005
  0
VERTEX
  5
134C
  8
0
 62
     7
 10
1.999749999999999
 20
3.601999999999999
 30
0.0
 42
1.0
  0
VERTEX
  5
134D
  8
0
 62
     7
 10
2.000249999999999
 20
3.601999999999999
 30
0.0
 42
1.0
  0
SEQEND
  5
134E
  8
0
 62
     7
  0
POLYLINE
  5
7F7
  8
0
 62
     7
 66
     1
 10
0.0
 20
0.0
 30
0.0
 40
0.001
 41
0.001
  0
VERTEX
  5
134F
  8
0
 62
     7
 10
2.0
 20
3.601999999999999
 30
0.0
  0
VERTEX
  5
1350
  8
0
 62
     7
 10
3.0
 20
3.552
 30
0.0
  0
SEQEND
  5
1351
  8
0
 62
     7
  0
POLYLINE
  5
7FB
  8
0
 62
     7
 66
     1
 10
0.0
 20
0.0
 30
0.0
 70
     1
 40
0.0005
 41
0.0005
  0
VERTEX
  5
1352
  8
0
 62
     7
 10
1.999749999999999
 20
3.601999999999999
 30
0.0
 42
1.0
  0
VERTEX
  5
1353
  8
0
 62
     7
 10
2.000249999999999
 20
3.601999999999999
 30
0.0
 42
1.0
  0
SEQEND
  5
1354
  8
0
 62
     7
  0
POLYLINE
  5
7FF
  8
0
 62
     7
 66
     1
 10
0.0
 20
0.0
 30
0.0
 70
     1
 40
0.0005
 41
0.0005
  0
VERTEX
  5
1355
  8
0
 62
     7
 10
2.9997500000000001
 20
3.552
 30
0.0
 42
1.0
  0
VERTEX
  5
1356
  8
0
 62
     7
 10
3.000249999999999
 20
3.552
 30
0.0
 42
1.0
  0
SEQEND
  5
1357
  8
0
 62
     7
  0
POLYLINE
  5
803
  8
0
 62
     7
 66
     1
 10
0.0
 20
0.0
 30
0.0
 40
0.001
 41
0.001
  0
VERTEX
  5
1358
  8
0
 62
     7
 10
2.0
 20
3.6000000000000001
 30
0.0
  0
VERTEX
  5
1359
  8
0
 62
     7
 10
3.0
 20
3.5499999999999989
 30
0.0
  0
SEQEND
  5
135A
  8
0
 62
     7
  0
POLYLINE
  5
807
  8
0
 62
     7
 66
     1
 10
0.0
 20
0.0
 30
0.0
 70
     1
 40
0.0005
 41
0.0005
  0
VERTEX
  5
135B
  8
0
 62
     7
 10
1.999749999999999
 20
3.6000000000000001
 30
0.0
 42
1.0
  0
VERTEX
  5
135C
  8
0
 62
     7
 10
2.000249999999999
 20
3.6000000000000001
 30
0.0
 42
1.0
  0
SEQEND
  5
135D
  8
0
 62
     7
  0
POLYLINE
  5
80B
  8
0
 62
     7
 66
     1
 10
0.0
 20
0.0
 30
0.0
 70
     1
 40
0.0005
 41
0.0005
  0
VERTEX
  5
135E
  8
0
 62
     7
 10
2.9997500000000001
 20
3.5499999999999989
 30
0.0
 42
1.0
  0
VERTEX
  5
135F
  8
0
 62
     7
 10
3.000249999999999
 20
3.5499999999999989
 30
0.0
 42
1.0
  0
SEQEND
  5
1360
  8
0
 62
     7
  0
POLYLINE
  5
80F
  8
0
 62
     7
 66
     1
 10
0.0
 20
0.0
 30
0.0
 40
0.001
 41
0.001
  0
VERTEX
  5
1361
  8
0
 62
     7
 10
1.1000000000000001
 20
3.6000000000000001
 30
0.0
  0
VERTEX
  5
1362
  8
0
 62
     7
 10
2.0
 20
3.6000000000000001
 30
0.0
  0
SEQEND
  5
1363
  8
0
 62
     7
  0
POLYLINE
  5
813
  8
0
 62
     7
 66
     1
 10
0.0
 20
0.0
 30
0.0
 70
     1
 40
0.0005
 41
0.0005
  0
VERTEX
  5
1364
  8
0
 62
     7
 10
1.09975
 20
3.6000000000000001
 30
0.0
 42
1.0
  0
VERTEX
  5
1365
  8
0
 62
     7
 10
1.1002499999999991
 20
3.6000000000000001
 30
0.0
 42
1.0
  0
SEQEND
  5
1366
  8
0
 62
     7
  0
POLYLINE
  5
817
  8
0
 62
     7
 66
     1
 10
0.0
 20
0.0
 30
0.0
 70
     1
 40
0.0005
 41
0.0005
  0
VERTEX
  5
1367
  8
0
 62
     7
 10
1.999749999999999
 20
3.6000000000000001
 30
0.0
 42
1.0
  0
VERTEX
  5
1368
  8
0
 62
     7
 10
2.000249999999999
 20
3.6000000000000001
 30
0.0
 42
1.0
  0
SEQEND
  5
1369
  8
0
 62
     7
  0
POLYLINE
  5
81B
  8
0
 62
     7
 66
     1
 10
0.0
 20
0.0
 30
0.0
 40
0.005
 41
0.005
  0
VERTEX
  5
136A
  8
0
 62
     7
 10
1.1000000000000001
 20
4.0
 30
0.0
  0
VERTEX
  5
136B
  8
0
 62
     7
 10
2.0
 20
4.0
 30
0.0
  0
SEQEND
  5
136C
  8
0
 62
     7
  0
POLYLINE
  5
81F
  8
0
 62
     7
 66
     1
 10
0.0
 20
0.0
 30
0.0
 70
     1
 40
0.0025
 41
0.0025
  0
VERTEX
  5
136D
  8
0
 62
     7
 10
1.098749999999999
 20
4.0
 30
0.0
 42
1.0
  0
VERTEX
  5
136E
  8
0
 62
     7
 10
1.1012500000000001
 20
4.0
 30
0.0
 42
1.0
  0
SEQEND
  5
136F
  8
0
 62
     7
  0
POLYLINE
  5
823
  8
0
 62
     7
 66
     1
 10
0.0
 20
0.0
 30
0.0
 70
     1
 40
0.0025
 41
0.0025
  0
VERTEX
  5
1370
  8
0
 62
     7
 10
1.99875
 20
4.0
 30
0.0
 42
1.0
  0
VERTEX
  5
1371
  8
0
 62
     7
 10
2.0012500000000002
 20
4.0
 30
0.0
 42
1.0
  0
SEQEND
  5
1372
  8
0
 62
     7
  0
POLYLINE
  5
827
  8
0
 62
     7
 66
     1
 10
0.0
 20
0.0
 30
0.0
 40
0.004
 41
0.004
  0
VERTEX
  5
1373
  8
0
 62
     7
 10
1.1000000000000001
 20
3.8999999999999999
 30
0.0
  0
VERTEX
  5
1374
  8
0
 62
     7
 10
2.0
 20
3.8999999999999999
 30
0.0
  0
SEQEND
  5
1375
  8
0
 62
     7
  0
POLYLINE
  5
82B
  8
0
 62
     7
 66
     1
 10
0.0
 20
0.0
 30
0.0
 70
     1
 40
0.002
 41
0.002
  0
VERTEX
  5
1376
  8
0
 62
     7
 10
1.0989999999999991
 20
3.8999999999999999
 30
0.0
 42
1.0
  0
VERTEX
  5
1377
  8
0
 62
     7
 10
1.1009999999999991
 20
3.8999999999999999
 30
0.0
 42
1.0
  0
SEQEND
  5
1378
  8
0
 62
     7
  0
POLYLINE
  5
82F
  8
0
 62
     7
 66
     1
 10
0.0
 20
0.0
 30
0.0
 70
     1
 40
0.002
 41
0.002
  0
VERTEX
  5
1379
  8
0
 62
     7
 10
1.9990000000000001
 20
3.8999999999999999
 30
0.0
 42
1.0
  0
VERTEX
  5
137A
  8
0
 62
     7
 10
2.000999999999999
 20
3.8999999999999999
 30
0.0
 42
1.0
  0
SEQEND
  5
137B
  8
0
 62
     7
  0
POLYLINE
  5
833
  8
0
 62
     7
 66
     1
 10
0.0
 20
0.0
 30
0.0
 40
0.004
 41
0.004
  0
VERTEX
  5
137C
  8
0
 62
     7
 10
2.0
 20
3.8999999999999999
 30
0.0
  0
VERTEX
  5
137D
  8
0
 62
     7
 10
3.0
 20
3.8500000000000001
 30
0.0
  0
SEQEND
  5
137E
  8
0
 62
     7
  0
POLYLINE
  5
837
  8
0
 62
     7
 66
     1
 10
0.0
 20
0.0
 30
0.0
 70
     1
 40
0.002
 41
0.002
  0
VERTEX
  5
137F
  8
0
 62
     7
 10
1.9990000000000001
 20
3.8999999999999999
 30
0.0
 42
1.0
  0
VERTEX
  5
1380
  8
0
 62
     7
 10
2.000999999999999
 20
3.8999999999999999
 30
0.0
 42
1.0
  0
SEQEND
  5
1381
  8
0
 62
     7
  0
POLYLINE
  5
83B
  8
0
 62
     7
 66
     1
 10
0.0
 20
0.0
 30
0.0
 70
     1
 40
0.002
 41
0.002
  0
VERTEX
  5
1382
  8
0
 62
     7
 10
2.9989999999999992
 20
3.8500000000000001
 30
0.0
 42
1.0
  0
VERTEX
  5
1383
  8
0
 62
     7
 10
3.0009999999999999
 20
3.8500000000000001
 30
0.0
 42
1.0
  0
SEQEND
  5
1384
  8
0
 62
     7
  0
POLYLINE
  5
83F
  8
0
 62
     7
 66
     1
 10
0.0
 20
0.0
 30
0.0
 40
0.004
 41
0.004
  0
VERTEX
  5
1385
  8
0
 62
     7
 10
1.1000000000000001
 20
3.907999999999999
 30
0.0
  0
VERTEX
  5
1386
  8
0
 62
     7
 10
2.0
 20
3.907999999999999
 30
0.0
  0
SEQEND
  5
1387
  8
0
 62
     7
  0
POLYLINE
  5
843
  8
0
 62
     7
 66
     1
 10
0.0
 20
0.0
 30
0.0
 70
     1
 40
0.002
 41
0.002
  0
VERTEX
  5
1388
  8
0
 62
     7
 10
1.0989999999999991
 20
3.907999999999999
 30
0.0
 42
1.0
  0
VERTEX
  5
1389
  8
0
 62
     7
 10
1.1009999999999991
 20
3.907999999999999
 30
0.0
 42
1.0
  0
SEQEND
  5
138A
  8
0
 62
     7
  0
POLYLINE
  5
847
  8
0
 62
     7
 66
     1
 10
0.0
 20
0.0
 30
0.0
 70
     1
 40
0.002
 41
0.002
  0
VERTEX
  5
138B
  8
0
 62
     7
 10
1.9990000000000001
 20
3.907999999999999
 30
0.0
 42
1.0
  0
VERTEX
  5
138C
  8
0
 62
     7
 10
2.000999999999999
 20
3.907999999999999
 30
0.0
 42
1.0
  0
SEQEND
  5
138D
  8
0
 62
     7
  0
POLYLINE
  5
84B
  8
0
 62
     7
 66
     1
 10
0.0
 20
0.0
 30
0.0
 40
0.004
 41
0.004
  0
VERTEX
  5
138E
  8
0
 62
     7
 10
2.0
 20
3.907999999999999
 30
0.0
  0
VERTEX
  5
138F
  8
0
 62
     7
 10
3.0
 20
3.8580000000000001
 30
0.0
  0
SEQEND
  5
1390
  8
0
 62
     7
  0
POLYLINE
  5
84F
  8
0
 62
     7
 66
     1
 10
0.0
 20
0.0
 30
0.0
 70
     1
 40
0.002
 41
0.002
  0
VERTEX
  5
1391
  8
0
 62
     7
 10
1.9990000000000001
 20
3.907999999999999
 30
0.0
 42
1.0
  0
VERTEX
  5
1392
  8
0
 62
     7
 10
2.000999999999999
 20
3.907999999999999
 30
0.0
 42
1.0
  0
SEQEND
  5
1393
  8
0
 62
     7
  0
POLYLINE
  5
853
  8
0
 62
     7
 66
     1
 10
0.0
 20
0.0
 30
0.0
 70
     1
 40
0.002
 41
0.002
  0
VERTEX
  5
1394
  8
0
 62
     7
 10
2.9989999999999992
 20
3.8580000000000001
 30
0.0
 42
1.0
  0
VERTEX
  5
1395
  8
0
 62
     7
 10
3.0009999999999999
 20
3.8580000000000001
 30
0.0
 42
1.0
  0
SEQEND
  5
1396
  8
0
 62
     7
  0
POLYLINE
  5
857
  8
0
 62
     7
 66
     1
 10
0.0
 20
0.0
 30
0.0
 40
0.004
 41
0.004
  0
VERTEX
  5
1397
  8
0
 62
     7
 10
2.0
 20
3.9159999999999999
 30
0.0
  0
VERTEX
  5
1398
  8
0
 62
     7
 10
3.0
 20
3.8660000000000001
 30
0.0
  0
SEQEND
  5
1399
  8
0
 62
     7
  0
POLYLINE
  5
85B
  8
0
 62
     7
 66
     1
 10
0.0
 20
0.0
 30
0.0
 70
     1
 40
0.002
 41
0.002
  0
VERTEX
  5
139A
  8
0
 62
     7
 10
1.9990000000000001
 20
3.9159999999999999
 30
0.0
 42
1.0
  0
VERTEX
  5
139B
  8
0
 62
     7
 10
2.000999999999999
 20
3.9159999999999999
 30
0.0
 42
1.0
  0
SEQEND
  5
139C
  8
0
 62
     7
  0
POLYLINE
  5
85F
  8
0
 62
     7
 66
     1
 10
0.0
 20
0.0
 30
0.0
 70
     1
 40
0.002
 41
0.002
  0
VERTEX
  5
139D
  8
0
 62
     7
 10
2.9989999999999992
 20
3.8660000000000001
 30
0.0
 42
1.0
  0
VERTEX
  5
139E
  8
0
 62
     7
 10
3.0009999999999999
 20
3.8660000000000001
 30
0.0
 42
1.0
  0
SEQEND
  5
139F
  8
0
 62
     7
  0
POLYLINE
  5
863
  8
0
 62
     7
 66
     1
 10
0.0
 20
0.0
 30
0.0
 40
0.004
 41
0.004
  0
VERTEX
  5
13A0
  8
0
 62
     7
 10
1.1000000000000001
 20
3.9159999999999999
 30
0.0
  0
VERTEX
  5
13A1
  8
0
 62
     7
 10
2.0
 20
3.9159999999999999
 30
0.0
  0
SEQEND
  5
13A2
  8
0
 62
     7
  0
POLYLINE
  5
867
  8
0
 62
     7
 66
     1
 10
0.0
 20
0.0
 30
0.0
 70
     1
 40
0.002
 41
0.002
  0
VERTEX
  5
13A3
  8
0
 62
     7
 10
1.0989999999999991
 20
3.9159999999999999
 30
0.0
 42
1.0
  0
VERTEX
  5
13A4
  8
0
 62
     7
 10
1.1009999999999991
 20
3.9159999999999999
 30
0.0
 42
1.0
  0
SEQEND
  5
13A5
  8
0
 62
     7
  0
POLYLINE
  5
86B
  8
0
 62
     7
 66
     1
 10
0.0
 20
0.0
 30
0.0
 70
     1
 40
0.002
 41
0.002
  0
VERTEX
  5
13A6
  8
0
 62
     7
 10
1.9990000000000001
 20
3.9159999999999999
 30
0.0
 42
1.0
  0
VERTEX
  5
13A7
  8
0
 62
     7
 10
2.000999999999999
 20
3.9159999999999999
 30
0.0
 42
1.0
  0
SEQEND
  5
13A8
  8
0
 62
     7
  0
POLYLINE
  5
86F
  8
0
 62
     7
 66
     1
 10
0.0
 20
0.0
 30
0.0
 40
0.004
 41
0.004
  0
VERTEX
  5
13A9
  8
0
 62
     7
 10
1.1000000000000001
 20
3.923999999999999
 30
0.0
  0
VERTEX
  5
13AA
  8
0
 62
     7
 10
2.0
 20
3.923999999999999
 30
0.0
  0
SEQEND
  5
13AB
  8
0
 62
     7
  0
POLYLINE
  5
873
  8
0
 62
     7
 66
     1
 10
0.0
 20
0.0
 30
0.0
 70
     1
 40
0.002
 41
0.002
  0
VERTEX
  5
13AC
  8
0
 62
     7
 10
1.0989999999999991
 20
3.923999999999999
 30
0.0
 42
1.0
  0
VERTEX
  5
13AD
  8
0
 62
     7
 10
1.1009999999999991
 20
3.923999999999999
 30
0.0
 42
1.0
  0
SEQEND
  5
13AE
  8
0
 62
     7
  0
POLYLINE
  5
877
  8
0
 62
     7
 66
     1
 10
0.0
 20
0.0
 30
0.0
 70
     1
 40
0.002
 41
0.002
  0
VERTEX
  5
13AF
  8
0
 62
     7
 10
1.9990000000000001
 20
3.923999999999999
 30
0.0
 42
1.0
  0
VERTEX
  5
13B0
  8
0
 62
     7
 10
2.000999999999999
 20
3.923999999999999
 30
0.0
 42
1.0
  0
SEQEND
  5
13B1
  8
0
 62
     7
  0
POLYLINE
  5
87B
  8
0
 62
     7
 66
     1
 10
0.0
 20
0.0
 30
0.0
 40
0.004
 41
0.004
  0
VERTEX
  5
13B2
  8
0
 62
     7
 10
2.0
 20
3.923999999999999
 30
0.0
  0
VERTEX
  5
13B3
  8
0
 62
     7
 10
3.0
 20
3.8739999999999992
 30
0.0
  0
SEQEND
  5
13B4
  8
0
 62
     7
  0
POLYLINE
  5
87F
  8
0
 62
     7
 66
     1
 10
0.0
 20
0.0
 30
0.0
 70
     1
 40
0.002
 41
0.002
  0
VERTEX
  5
13B5
  8
0
 62
     7
 10
1.9990000000000001
 20
3.923999999999999
 30
0.0
 42
1.0
  0
VERTEX
  5
13B6
  8
0
 62
     7
 10
2.000999999999999
 20
3.923999999999999
 30
0.0
 42
1.0
  0
SEQEND
  5
13B7
  8
0
 62
     7
  0
POLYLINE
  5
883
  8
0
 62
     7
 66
     1
 10
0.0
 20
0.0
 30
0.0
 70
     1
 40
0.002
 41
0.002
  0
VERTEX
  5
13B8
  8
0
 62
     7
 10
2.9989999999999992
 20
3.8739999999999992
 30
0.0
 42
1.0
  0
VERTEX
  5
13B9
  8
0
 62
     7
 10
3.0009999999999999
 20
3.8739999999999992
 30
0.0
 42
1.0
  0
SEQEND
  5
13BA
  8
0
 62
     7
  0
POLYLINE
  5
887
  8
0
 62
     7
 66
     1
 10
0.0
 20
0.0
 30
0.0
 40
0.004
 41
0.004
  0
VERTEX
  5
13BB
  8
0
 62
     7
 10
2.0
 20
3.9319999999999999
 30
0.0
  0
VERTEX
  5
13BC
  8
0
 62
     7
 10
3.0
 20
3.8819999999999988
 30
0.0
  0
SEQEND
  5
13BD
  8
0
 62
     7
  0
POLYLINE
  5
88B
  8
0
 62
     7
 66
     1
 10
0.0
 20
0.0
 30
0.0
 70
     1
 40
0.002
 41
0.002
  0
VERTEX
  5
13BE
  8
0
 62
     7
 10
1.9990000000000001
 20
3.9319999999999999
 30
0.0
 42
1.0
  0
VERTEX
  5
13BF
  8
0
 62
     7
 10
2.000999999999999
 20
3.9319999999999999
 30
0.0
 42
1.0
  0
SEQEND
  5
13C0
  8
0
 62
     7
  0
POLYLINE
  5
88F
  8
0
 62
     7
 66
     1
 10
0.0
 20
0.0
 30
0.0
 70
     1
 40
0.002
 41
0.002
  0
VERTEX
  5
13C1
  8
0
 62
     7
 10
2.9989999999999992
 20
3.8819999999999988
 30
0.0
 42
1.0
  0
VERTEX
  5
13C2
  8
0
 62
     7
 10
3.0009999999999999
 20
3.8819999999999988
 30
0.0
 42
1.0
  0
SEQEND
  5
13C3
  8
0
 62
     7
  0
POLYLINE
  5
893
  8
0
 62
     7
 66
     1
 10
0.0
 20
0.0
 30
0.0
 40
0.004
 41
0.004
  0
VERTEX
  5
13C4
  8
0
 62
     7
 10
1.1000000000000001
 20
3.9319999999999999
 30
0.0
  0
VERTEX
  5
13C5
  8
0
 62
     7
 10
2.0
 20
3.9319999999999999
 30
0.0
  0
SEQEND
  5
13C6
  8
0
 62
     7
  0
POLYLINE
  5
897
  8
0
 62
     7
 66
     1
 10
0.0
 20
0.0
 30
0.0
 70
     1
 40
0.002
 41
0.002
  0
VERTEX
  5
13C7
  8
0
 62
     7
 10
1.0989999999999991
 20
3.9319999999999999
 30
0.0
 42
1.0
  0
VERTEX
  5
13C8
  8
0
 62
     7
 10
1.1009999999999991
 20
3.9319999999999999
 30
0.0
 42
1.0
  0
SEQEND
  5
13C9
  8
0
 62
     7
  0
POLYLINE
  5
89B
  8
0
 62
     7
 66
     1
 10
0.0
 20
0.0
 30
0.0
 70
     1
 40
0.002
 41
0.002
  0
VERTEX
  5
13CA
  8
0
 62
     7
 10
1.9990000000000001
 20
3.9319999999999999
 30
0.0
 42
1.0
  0
VERTEX
  5
13CB
  8
0
 62
     7
 10
2.000999999999999
 20
3.9319999999999999
 30
0.0
 42
1.0
  0
SEQEND
  5
13CC
  8
0
 62
     7
  0
POLYLINE
  5
89F
  8
0
 62
     7
 66
     1
 10
0.0
 20
0.0
 30
0.0
 40
0.005
 41
0.005
  0
VERTEX
  5
13CD
  8
0
 62
     7
 10
2.0
 20
4.0
 30
0.0
  0
VERTEX
  5
13CE
  8
0
 62
     7
 10
3.0
 20
3.9500000000000002
 30
0.0
  0
SEQEND
  5
13CF
  8
0
 62
     7
  0
POLYLINE
  5
8A3
  8
0
 62
     7
 66
     1
 10
0.0
 20
0.0
 30
0.0
 70
     1
 40
0.0025
 41
0.0025
  0
VERTEX
  5
13D0
  8
0
 62
     7
 10
1.99875
 20
4.0
 30
0.0
 42
1.0
  0
VERTEX
  5
13D1
  8
0
 62
     7
 10
2.0012500000000002
 20
4.0
 30
0.0
 42
1.0
  0
SEQEND
  5
13D2
  8
0
 62
     7
  0
POLYLINE
  5
8A7
  8
0
 62
     7
 66
     1
 10
0.0
 20
0.0
 30
0.0
 70
     1
 40
0.0025
 41
0.0025
  0
VERTEX
  5
13D3
  8
0
 62
     7
 10
2.9987499999999989
 20
3.9500000000000002
 30
0.0
 42
1.0
  0
VERTEX
  5
13D4
  8
0
 62
     7
 10
3.0012500000000002
 20
3.9500000000000002
 30
0.0
 42
1.0
  0
SEQEND
  5
13D5
  8
0
 62
     7
  0
POLYLINE
  5
8AB
  8
0
 62
     7
 66
     1
 10
0.0
 20
0.0
 30
0.0
 40
0.005
 41
0.005
  0
VERTEX
  5
13D6
  8
0
 62
     7
 10
1.1000000000000001
 20
4.0099999999999989
 30
0.0
  0
VERTEX
  5
13D7
  8
0
 62
     7
 10
2.0
 20
4.0099999999999989
 30
0.0
  0
SEQEND
  5
13D8
  8
0
 62
     7
  0
POLYLINE
  5
8AF
  8
0
 62
     7
 66
     1
 10
0.0
 20
0.0
 30
0.0
 70
     1
 40
0.0025
 41
0.0025
  0
VERTEX
  5
13D9
  8
0
 62
     7
 10
1.098749999999999
 20
4.0099999999999989
 30
0.0
 42
1.0
  0
VERTEX
  5
13DA
  8
0
 62
     7
 10
1.1012500000000001
 20
4.0099999999999989
 30
0.0
 42
1.0
  0
SEQEND
  5
13DB
  8
0
 62
     7
  0
POLYLINE
  5
8B3
  8
0
 62
     7
 66
     1
 10
0.0
 20
0.0
 30
0.0
 70
     1
 40
0.0025
 41
0.0025
  0
VERTEX
  5
13DC
  8
0
 62
     7
 10
1.99875
 20
4.0099999999999989
 30
0.0
 42
1.0
  0
VERTEX
  5
13DD
  8
0
 62
     7
 10
2.0012500000000002
 20
4.0099999999999989
 30
0.0
 42
1.0
  0
SEQEND
  5
13DE
  8
0
 62
     7
  0
POLYLINE
  5
8B7
  8
0
 62
     7
 66
     1
 10
0.0
 20
0.0
 30
0.0
 40
0.005
 41
0.005
  0
VERTEX
  5
13DF
  8
0
 62
     7
 10
2.0
 20
4.0099999999999989
 30
0.0
  0
VERTEX
  5
13E0
  8
0
 62
     7
 10
3.0
 20
3.9599999999999991
 30
0.0
  0
SEQEND
  5
13E1
  8
0
 62
     7
  0
POLYLINE
  5
8BB
  8
0
 62
     7
 66
     1
 10
0.0
 20
0.0
 30
0.0
 70
     1
 40
0.0025
 41
0.0025
  0
VERTEX
  5
13E2
  8
0
 62
     7
 10
1.99875
 20
4.0099999999999989
 30
0.0
 42
1.0
  0
VERTEX
  5
13E3
  8
0
 62
     7
 10
2.0012500000000002
 20
4.0099999999999989
 30
0.0
 42
1.0
  0
SEQEND
  5
13E4
  8
0
 62
     7
  0
POLYLINE
  5
8BF
  8
0
 62
     7
 66
     1
 10
0.0
 20
0.0
 30
0.0
 70
     1
 40
0.0025
 41
0.0025
  0
VERTEX
  5
13E5
  8
0
 62
     7
 10
2.9987499999999989
 20
3.9599999999999991
 30
0.0
 42
1.0
  0
VERTEX
  5
13E6
  8
0
 62
     7
 10
3.0012500000000002
 20
3.9599999999999991
 30
0.0
 42
1.0
  0
SEQEND
  5
13E7
  8
0
 62
     7
  0
POLYLINE
  5
8C3
  8
0
 62
     7
 66
     1
 10
0.0
 20
0.0
 30
0.0
 40
0.005
 41
0.005
  0
VERTEX
  5
13E8
  8
0
 62
     7
 10
2.0
 20
4.0199999999999987
 30
0.0
  0
VERTEX
  5
13E9
  8
0
 62
     7
 10
3.0
 20
3.9700000000000002
 30
0.0
  0
SEQEND
  5
13EA
  8
0
 62
     7
  0
POLYLINE
  5
8C7
  8
0
 62
     7
 66
     1
 10
0.0
 20
0.0
 30
0.0
 70
     1
 40
0.0025
 41
0.0025
  0
VERTEX
  5
13EB
  8
0
 62
     7
 10
1.99875
 20
4.0199999999999987
 30
0.0
 42
1.0
  0
VERTEX
  5
13EC
  8
0
 62
     7
 10
2.0012500000000002
 20
4.0199999999999987
 30
0.0
 42
1.0
  0
SEQEND
  5
13ED
  8
0
 62
     7
  0
POLYLINE
  5
8CB
  8
0
 62
     7
 66
     1
 10
0.0
 20
0.0
 30
0.0
 70
     1
 40
0.0025
 41
0.0025
  0
VERTEX
  5
13EE
  8
0
 62
     7
 10
2.9987499999999989
 20
3.9700000000000002
 30
0.0
 42
1.0
  0
VERTEX
  5
13EF
  8
0
 62
     7
 10
3.0012500000000002
 20
3.9700000000000002
 30
0.0
 42
1.0
  0
SEQEND
  5
13F0
  8
0
 62
     7
  0
POLYLINE
  5
8CF
  8
0
 62
     7
 66
     1
 10
0.0
 20
0.0
 30
0.0
 40
0.005
 41
0.005
  0
VERTEX
  5
13F1
  8
0
 62
     7
 10
1.1000000000000001
 20
4.0199999999999987
 30
0.0
  0
VERTEX
  5
13F2
  8
0
 62
     7
 10
2.0
 20
4.0199999999999987
 30
0.0
  0
SEQEND
  5
13F3
  8
0
 62
     7
  0
POLYLINE
  5
8D3
  8
0
 62
     7
 66
     1
 10
0.0
 20
0.0
 30
0.0
 70
     1
 40
0.0025
 41
0.0025
  0
VERTEX
  5
13F4
  8
0
 62
     7
 10
1.098749999999999
 20
4.0199999999999987
 30
0.0
 42
1.0
  0
VERTEX
  5
13F5
  8
0
 62
     7
 10
1.1012500000000001
 20
4.0199999999999987
 30
0.0
 42
1.0
  0
SEQEND
  5
13F6
  8
0
 62
     7
  0
POLYLINE
  5
8D7
  8
0
 62
     7
 66
     1
 10
0.0
 20
0.0
 30
0.0
 70
     1
 40
0.0025
 41
0.0025
  0
VERTEX
  5
13F7
  8
0
 62
     7
 10
1.99875
 20
4.0199999999999987
 30
0.0
 42
1.0
  0
VERTEX
  5
13F8
  8
0
 62
     7
 10
2.0012500000000002
 20
4.0199999999999987
 30
0.0
 42
1.0
  0
SEQEND
  5
13F9
  8
0
 62
     7
  0
POLYLINE
  5
8DB
  8
0
 62
     7
 66
     1
 10
0.0
 20
0.0
 30
0.0
 40
0.005
 41
0.005
  0
VERTEX
  5
13FA
  8
0
 62
     7
 10
1.1000000000000001
 20
4.0300000000000002
 30
0.0
  0
VERTEX
  5
13FB
  8
0
 62
     7
 10
2.0
 20
4.0300000000000002
 30
0.0
  0
SEQEND
  5
13FC
  8
0
 62
     7
  0
POLYLINE
  5
8DF
  8
0
 62
     7
 66
     1
 10
0.0
 20
0.0
 30
0.0
 70
     1
 40
0.0025
 41
0.0025
  0
VERTEX
  5
13FD
  8
0
 62
     7
 10
1.098749999999999
 20
4.0300000000000002
 30
0.0
 42
1.0
  0
VERTEX
  5
13FE
  8
0
 62
     7
 10
1.1012500000000001
 20
4.0300000000000002
 30
0.0
 42
1.0
  0
SEQEND
  5
13FF
  8
0
 62
     7
  0
POLYLINE
  5
8E3
  8
0
 62
     7
 66
     1
 10
0.0
 20
0.0
 30
0.0
 70
     1
 40
0.0025
 41
0.0025
  0
VERTEX
  5
1400
  8
0
 62
     7
 10
1.99875
 20
4.0300000000000002
 30
0.0
 42
1.0
  0
VERTEX
  5
1401
  8
0
 62
     7
 10
2.0012500000000002
 20
4.0300000000000002
 30
0.0
 42
1.0
  0
SEQEND
  5
1402
  8
0
 62
     7
  0
POLYLINE
  5
8E7
  8
0
 62
     7
 66
     1
 10
0.0
 20
0.0
 30
0.0
 40
0.005
 41
0.005
  0
VERTEX
  5
1403
  8
0
 62
     7
 10
2.0
 20
4.0300000000000002
 30
0.0
  0
VERTEX
  5
1404
  8
0
 62
     7
 10
3.0
 20
3.98
 30
0.0
  0
SEQEND
  5
1405
  8
0
 62
     7
  0
POLYLINE
  5
8EB
  8
0
 62
     7
 66
     1
 10
0.0
 20
0.0
 30
0.0
 70
     1
 40
0.0025
 41
0.0025
  0
VERTEX
  5
1406
  8
0
 62
     7
 10
1.99875
 20
4.0300000000000002
 30
0.0
 42
1.0
  0
VERTEX
  5
1407
  8
0
 62
     7
 10
2.0012500000000002
 20
4.0300000000000002
 30
0.0
 42
1.0
  0
SEQEND
  5
1408
  8
0
 62
     7
  0
POLYLINE
  5
8EF
  8
0
 62
     7
 66
     1
 10
0.0
 20
0.0
 30
0.0
 70
     1
 40
0.0025
 41
0.0025
  0
VERTEX
  5
1409
  8
0
 62
     7
 10
2.9987499999999989
 20
3.98
 30
0.0
 42
1.0
  0
VERTEX
  5
140A
  8
0
 62
     7
 10
3.0012500000000002
 20
3.98
 30
0.0
 42
1.0
  0
SEQEND
  5
140B
  8
0
 62
     7
  0
POLYLINE
  5
8F3
  8
0
 62
     7
 66
     1
 10
0.0
 20
0.0
 30
0.0
 40
0.005
 41
0.005
  0
VERTEX
  5
140C
  8
0
 62
     7
 10
2.0
 20
4.04
 30
0.0
  0
VERTEX
  5
140D
  8
0
 62
     7
 10
3.0
 20
3.9900000000000002
 30
0.0
  0
SEQEND
  5
140E
  8
0
 62
     7
  0
POLYLINE
  5
8F7
  8
0
 62
     7
 66
     1
 10
0.0
 20
0.0
 30
0.0
 70
     1
 40
0.0025
 41
0.0025
  0
VERTEX
  5
140F
  8
0
 62
     7
 10
1.99875
 20
4.04
 30
0.0
 42
1.0
  0
VERTEX
  5
1410
  8
0
 62
     7
 10
2.0012500000000002
 20
4.04
 30
0.0
 42
1.0
  0
SEQEND
  5
1411
  8
0
 62
     7
  0
POLYLINE
  5
8FB
  8
0
 62
     7
 66
     1
 10
0.0
 20
0.0
 30
0.0
 70
     1
 40
0.0025
 41
0.0025
  0
VERTEX
  5
1412
  8
0
 62
     7
 10
2.9987499999999989
 20
3.9900000000000002
 30
0.0
 42
1.0
  0
VERTEX
  5
1413
  8
0
 62
     7
 10
3.0012500000000002
 20
3.9900000000000002
 30
0.0
 42
1.0
  0
SEQEND
  5
1414
  8
0
 62
     7
  0
POLYLINE
  5
8FF
  8
0
 62
     7
 66
     1
 10
0.0
 20
0.0
 30
0.0
 40
0.005
 41
0.005
  0
VERTEX
  5
1415
  8
0
 62
     7
 10
1.1000000000000001
 20
4.04
 30
0.0
  0
VERTEX
  5
1416
  8
0
 62
     7
 10
2.0
 20
4.04
 30
0.0
  0
SEQEND
  5
1417
  8
0
 62
     7
  0
POLYLINE
  5
903
  8
0
 62
     7
 66
     1
 10
0.0
 20
0.0
 30
0.0
 70
     1
 40
0.0025
 41
0.0025
  0
VERTEX
  5
1418
  8
0
 62
     7
 10
1.098749999999999
 20
4.04
 30
0.0
 42
1.0
  0
VERTEX
  5
1419
  8
0
 62
     7
 10
1.1012500000000001
 20
4.04
 30
0.0
 42
1.0
  0
SEQEND
  5
141A
  8
0
 62
     7
  0
POLYLINE
  5
907
  8
0
 62
     7
 66
     1
 10
0.0
 20
0.0
 30
0.0
 70
     1
 40
0.0025
 41
0.0025
  0
VERTEX
  5
141B
  8
0
 62
     7
 10
1.99875
 20
4.04
 30
0.0
 42
1.0
  0
VERTEX
  5
141C
  8
0
 62
     7
 10
2.0012500000000002
 20
4.04
 30
0.0
 42
1.0
  0
SEQEND
  5
141D
  8
0
 62
     7
  0
POLYLINE
  5
90B
  8
0
 62
     7
 66
     1
 10
0.0
 20
0.0
 30
0.0
 40
0.01
 41
0.01
  0
VERTEX
  5
141E
  8
0
 62
     7
 10
2.0
 20
4.5999999999999988
 30
0.0
  0
VERTEX
  5
141F
  8
0
 62
     7
 10
3.0
 20
4.5499999999999989
 30
0.0
  0
SEQEND
  5
1420
  8
0
 62
     7
  0
POLYLINE
  5
90F
  8
0
 62
     7
 66
     1
 10
0.0
 20
0.0
 30
0.0
 70
     1
 40
0.005
 41
0.005
  0
VERTEX
  5
1421
  8
0
 62
     7
 10
1.9975000000000001
 20
4.5999999999999988
 30
0.0
 42
1.0
  0
VERTEX
  5
1422
  8
0
 62
     7
 10
2.0024999999999991
 20
4.5999999999999988
 30
0.0
 42
1.0
  0
SEQEND
  5
1423
  8
0
 62
     7
  0
POLYLINE
  5
913
  8
0
 62
     7
 66
     1
 10
0.0
 20
0.0
 30
0.0
 70
     1
 40
0.005
 41
0.005
  0
VERTEX
  5
1424
  8
0
 62
     7
 10
2.9975000000000001
 20
4.5499999999999989
 30
0.0
 42
1.0
  0
VERTEX
  5
1425
  8
0
 62
     7
 10
3.0024999999999991
 20
4.5499999999999989
 30
0.0
 42
1.0
  0
SEQEND
  5
1426
  8
0
 62
     7
  0
POLYLINE
  5
917
  8
0
 62
     7
 66
     1
 10
0.0
 20
0.0
 30
0.0
 40
0.01
 41
0.01
  0
VERTEX
  5
1427
  8
0
 62
     7
 10
1.1000000000000001
 20
4.6799999999999988
 30
0.0
  0
VERTEX
  5
1428
  8
0
 62
     7
 10
2.0
 20
4.6799999999999988
 30
0.0
  0
SEQEND
  5
1429
  8
0
 62
     7
  0
POLYLINE
  5
91B
  8
0
 62
     7
 66
     1
 10
0.0
 20
0.0
 30
0.0
 70
     1
 40
0.005
 41
0.005
  0
VERTEX
  5
142A
  8
0
 62
     7
 10
1.097499999999999
 20
4.6799999999999988
 30
0.0
 42
1.0
  0
VERTEX
  5
142B
  8
0
 62
     7
 10
1.1025
 20
4.6799999999999988
 30
0.0
 42
1.0
  0
SEQEND
  5
142C
  8
0
 62
     7
  0
POLYLINE
  5
91F
  8
0
 62
     7
 66
     1
 10
0.0
 20
0.0
 30
0.0
 70
     1
 40
0.005
 41
0.005
  0
VERTEX
  5
142D
  8
0
 62
     7
 10
1.9975000000000001
 20
4.6799999999999988
 30
0.0
 42
1.0
  0
VERTEX
  5
142E
  8
0
 62
     7
 10
2.0024999999999991
 20
4.6799999999999988
 30
0.0
 42
1.0
  0
SEQEND
  5
142F
  8
0
 62
     7
  0
POLYLINE
  5
923
  8
0
 62
     7
 66
     1
 10
0.0
 20
0.0
 30
0.0
 40
0.01
 41
0.01
  0
VERTEX
  5
1430
  8
0
 62
     7
 10
2.0
 20
4.6799999999999988
 30
0.0
  0
VERTEX
  5
1431
  8
0
 62
     7
 10
3.0
 20
4.629999999999999
 30
0.0
  0
SEQEND
  5
1432
  8
0
 62
     7
  0
POLYLINE
  5
927
  8
0
 62
     7
 66
     1
 10
0.0
 20
0.0
 30
0.0
 70
     1
 40
0.005
 41
0.005
  0
VERTEX
  5
1433
  8
0
 62
     7
 10
1.9975000000000001
 20
4.6799999999999988
 30
0.0
 42
1.0
  0
VERTEX
  5
1434
  8
0
 62
     7
 10
2.0024999999999991
 20
4.6799999999999988
 30
0.0
 42
1.0
  0
SEQEND
  5
1435
  8
0
 62
     7
  0
POLYLINE
  5
92B
  8
0
 62
     7
 66
     1
 10
0.0
 20
0.0
 30
0.0
 70
     1
 40
0.005
 41
0.005
  0
VERTEX
  5
1436
  8
0
 62
     7
 10
2.9975000000000001
 20
4.629999999999999
 30
0.0
 42
1.0
  0
VERTEX
  5
1437
  8
0
 62
     7
 10
3.0024999999999991
 20
4.629999999999999
 30
0.0
 42
1.0
  0
SEQEND
  5
1438
  8
0
 62
     7
  0
POLYLINE
  5
92F
  8
0
 62
     7
 66
     1
 10
0.0
 20
0.0
 30
0.0
 40
0.01
 41
0.01
  0
VERTEX
  5
1439
  8
0
 62
     7
 10
2.0
 20
4.6600000000000001
 30
0.0
  0
VERTEX
  5
143A
  8
0
 62
     7
 10
3.0
 20
4.6100000000000003
 30
0.0
  0
SEQEND
  5
143B
  8
0
 62
     7
  0
POLYLINE
  5
933
  8
0
 62
     7
 66
     1
 10
0.0
 20
0.0
 30
0.0
 70
     1
 40
0.005
 41
0.005
  0
VERTEX
  5
143C
  8
0
 62
     7
 10
1.9975000000000001
 20
4.6600000000000001
 30
0.0
 42
1.0
  0
VERTEX
  5
143D
  8
0
 62
     7
 10
2.0024999999999991
 20
4.6600000000000001
 30
0.0
 42
1.0
  0
SEQEND
  5
143E
  8
0
 62
     7
  0
POLYLINE
  5
937
  8
0
 62
     7
 66
     1
 10
0.0
 20
0.0
 30
0.0
 70
     1
 40
0.005
 41
0.005
  0
VERTEX
  5
143F
  8
0
 62
     7
 10
2.9975000000000001
 20
4.6100000000000003
 30
0.0
 42
1.0
  0
VERTEX
  5
1440
  8
0
 62
     7
 10
3.0024999999999991
 20
4.6100000000000003
 30
0.0
 42
1.0
  0
SEQEND
  5
1441
  8
0
 62
     7
  0
POLYLINE
  5
93B
  8
0
 62
     7
 66
     1
 10
0.0
 20
0.0
 30
0.0
 40
0.01
 41
0.01
  0
VERTEX
  5
1442
  8
0
 62
     7
 10
1.1000000000000001
 20
4.6600000000000001
 30
0.0
  0
VERTEX
  5
1443
  8
0
 62
     7
 10
2.0
 20
4.6600000000000001
 30
0.0
  0
SEQEND
  5
1444
  8
0
 62
     7
  0
POLYLINE
  5
93F
  8
0
 62
     7
 66
     1
 10
0.0
 20
0.0
 30
0.0
 70
     1
 40
0.005
 41
0.005
  0
VERTEX
  5
1445
  8
0
 62
     7
 10
1.097499999999999
 20
4.6600000000000001
 30
0.0
 42
1.0
  0
VERTEX
  5
1446
  8
0
 62
     7
 10
1.1025
 20
4.6600000000000001
 30
0.0
 42
1.0
  0
SEQEND
  5
1447
  8
0
 62
     7
  0
POLYLINE
  5
943
  8
0
 62
     7
 66
     1
 10
0.0
 20
0.0
 30
0.0
 70
     1
 40
0.005
 41
0.005
  0
VERTEX
  5
1448
  8
0
 62
     7
 10
1.9975000000000001
 20
4.6600000000000001
 30
0.0
 42
1.0
  0
VERTEX
  5
1449
  8
0
 62
     7
 10
2.0024999999999991
 20
4.6600000000000001
 30
0.0
 42
1.0
  0
SEQEND
  5
144A
  8
0
 62
     7
  0
POLYLINE
  5
947
  8
0
 62
     7
 66
     1
 10
0.0
 20
0.0
 30
0.0
 40
0.01
 41
0.01
  0
VERTEX
  5
144B
  8
0
 62
     7
 10
1.1000000000000001
 20
4.6399999999999988
 30
0.0
  0
VERTEX
  5
144C
  8
0
 62
     7
 10
2.0
 20
4.6399999999999988
 30
0.0
  0
SEQEND
  5
144D
  8
0
 62
     7
  0
POLYLINE
  5
94B
  8
0
 62
     7
 66
     1
 10
0.0
 20
0.0
 30
0.0
 70
     1
 40
0.005
 41
0.005
  0
VERTEX
  5
144E
  8
0
 62
     7
 10
1.097499999999999
 20
4.6399999999999988
 30
0.0
 42
1.0
  0
VERTEX
  5
144F
  8
0
 62
     7
 10
1.1025
 20
4.6399999999999988
 30
0.0
 42
1.0
  0
SEQEND
  5
1450
  8
0
 62
     7
  0
POLYLINE
  5
94F
  8
0
 62
     7
 66
     1
 10
0.0
 20
0.0
 30
0.0
 70
     1
 40
0.005
 41
0.005
  0
VERTEX
  5
1451
  8
0
 62
     7
 10
1.9975000000000001
 20
4.6399999999999988
 30
0.0
 42
1.0
  0
VERTEX
  5
1452
  8
0
 62
     7
 10
2.0024999999999991
 20
4.6399999999999988
 30
0.0
 42
1.0
  0
SEQEND
  5
1453
  8
0
 62
     7
  0
POLYLINE
  5
953
  8
0
 62
     7
 66
     1
 10
0.0
 20
0.0
 30
0.0
 40
0.01
 41
0.01
  0
VERTEX
  5
1454
  8
0
 62
     7
 10
2.0
 20
4.6399999999999988
 30
0.0
  0
VERTEX
  5
1455
  8
0
 62
     7
 10
3.0
 20
4.589999999999999
 30
0.0
  0
SEQEND
  5
1456
  8
0
 62
     7
  0
POLYLINE
  5
957
  8
0
 62
     7
 66
     1
 10
0.0
 20
0.0
 30
0.0
 70
     1
 40
0.005
 41
0.005
  0
VERTEX
  5
1457
  8
0
 62
     7
 10
1.9975000000000001
 20
4.6399999999999988
 30
0.0
 42
1.0
  0
VERTEX
  5
1458
  8
0
 62
     7
 10
2.0024999999999991
 20
4.6399999999999988
 30
0.0
 42
1.0
  0
SEQEND
  5
1459
  8
0
 62
     7
  0
POLYLINE
  5
95B
  8
0
 62
     7
 66
     1
 10
0.0
 20
0.0
 30
0.0
 70
     1
 40
0.005
 41
0.005
  0
VERTEX
  5
145A
  8
0
 62
     7
 10
2.9975000000000001
 20
4.589999999999999
 30
0.0
 42
1.0
  0
VERTEX
  5
145B
  8
0
 62
     7
 10
3.0024999999999991
 20
4.589999999999999
 30
0.0
 42
1.0
  0
SEQEND
  5
145C
  8
0
 62
     7
  0
POLYLINE
  5
95F
  8
0
 62
     7
 66
     1
 10
0.0
 20
0.0
 30
0.0
 40
0.01
 41
0.01
  0
VERTEX
  5
145D
  8
0
 62
     7
 10
2.0
 20
4.6200000000000001
 30
0.0
  0
VERTEX
  5
145E
  8
0
 62
     7
 10
3.0
 20
4.5700000000000003
 30
0.0
  0
SEQEND
  5
145F
  8
0
 62
     7
  0
POLYLINE
  5
963
  8
0
 62
     7
 66
     1
 10
0.0
 20
0.0
 30
0.0
 70
     1
 40
0.005
 41
0.005
  0
VERTEX
  5
1460
  8
0
 62
     7
 10
1.9975000000000001
 20
4.6200000000000001
 30
0.0
 42
1.0
  0
VERTEX
  5
1461
  8
0
 62
     7
 10
2.0024999999999991
 20
4.6200000000000001
 30
0.0
 42
1.0
  0
SEQEND
  5
1462
  8
0
 62
     7
  0
POLYLINE
  5
967
  8
0
 62
     7
 66
     1
 10
0.0
 20
0.0
 30
0.0
 70
     1
 40
0.005
 41
0.005
  0
VERTEX
  5
1463
  8
0
 62
     7
 10
2.9975000000000001
 20
4.5700000000000003
 30
0.0
 42
1.0
  0
VERTEX
  5
1464
  8
0
 62
     7
 10
3.0024999999999991
 20
4.5700000000000003
 30
0.0
 42
1.0
  0
SEQEND
  5
1465
  8
0
 62
     7
  0
POLYLINE
  5
96B
  8
0
 62
     7
 66
     1
 10
0.0
 20
0.0
 30
0.0
 40
0.01
 41
0.01
  0
VERTEX
  5
1466
  8
0
 62
     7
 10
1.1000000000000001
 20
4.6200000000000001
 30
0.0
  0
VERTEX
  5
1467
  8
0
 62
     7
 10
2.0
 20
4.6200000000000001
 30
0.0
  0
SEQEND
  5
1468
  8
0
 62
     7
  0
POLYLINE
  5
96F
  8
0
 62
     7
 66
     1
 10
0.0
 20
0.0
 30
0.0
 70
     1
 40
0.005
 41
0.005
  0
VERTEX
  5
1469
  8
0
 62
     7
 10
1.097499999999999
 20
4.6200000000000001
 30
0.0
 42
1.0
  0
VERTEX
  5
146A
  8
0
 62
     7
 10
1.1025
 20
4.6200000000000001
 30
0.0
 42
1.0
  0
SEQEND
  5
146B
  8
0
 62
     7
  0
POLYLINE
  5
973
  8
0
 62
     7
 66
     1
 10
0.0
 20
0.0
 30
0.0
 70
     1
 40
0.005
 41
0.005
  0
VERTEX
  5
146C
  8
0
 62
     7
 10
1.9975000000000001
 20
4.6200000000000001
 30
0.0
 42
1.0
  0
VERTEX
  5
146D
  8
0
 62
     7
 10
2.0024999999999991
 20
4.6200000000000001
 30
0.0
 42
1.0
  0
SEQEND
  5
146E
  8
0
 62
     7
  0
POLYLINE
  5
977
  8
0
 62
     7
 66
     1
 10
0.0
 20
0.0
 30
0.0
 40
0.01
 41
0.01
  0
VERTEX
  5
146F
  8
0
 62
     7
 10
1.1000000000000001
 20
4.5999999999999988
 30
0.0
  0
VERTEX
  5
1470
  8
0
 62
     7
 10
2.0
 20
4.5999999999999988
 30
0.0
  0
SEQEND
  5
1471
  8
0
 62
     7
  0
POLYLINE
  5
97B
  8
0
 62
     7
 66
     1
 10
0.0
 20
0.0
 30
0.0
 70
     1
 40
0.005
 41
0.005
  0
VERTEX
  5
1472
  8
0
 62
     7
 10
1.097499999999999
 20
4.5999999999999988
 30
0.0
 42
1.0
  0
VERTEX
  5
1473
  8
0
 62
     7
 10
1.1025
 20
4.5999999999999988
 30
0.0
 42
1.0
  0
SEQEND
  5
1474
  8
0
 62
     7
  0
POLYLINE
  5
97F
  8
0
 62
     7
 66
     1
 10
0.0
 20
0.0
 30
0.0
 70
     1
 40
0.005
 41
0.005
  0
VERTEX
  5
1475
  8
0
 62
     7
 10
1.9975000000000001
 20
4.5999999999999988
 30
0.0
 42
1.0
  0
VERTEX
  5
1476
  8
0
 62
     7
 10
2.0024999999999991
 20
4.5999999999999988
 30
0.0
 42
1.0
  0
SEQEND
  5
1477
  8
0
 62
     7
  0
POLYLINE
  5
983
  8
0
 62
     7
 66
     1
 10
0.0
 20
0.0
 30
0.0
 40
0.01
 41
0.01
  0
VERTEX
  5
1478
  8
0
 62
     7
 10
5.0
 20
1.0
 30
0.0
  0
VERTEX
  5
1479
  8
0
 62
     7
 10
5.0
 20
5.0
 30
0.0
  0
SEQEND
  5
147A
  8
0
 62
     7
  0
POLYLINE
  5
987
  8
0
 62
     7
 66
     1
 10
0.0
 20
0.0
 30
0.0
 70
     1
 40
0.005
 41
0.005
  0
VERTEX
  5
147B
  8
0
 62
     7
 10
4.9974999999999987
 20
1.0
 30
0.0
 42
1.0
  0
VERTEX
  5
147C
  8
0
 62
     7
 10
5.0025000000000004
 20
1.0
 30
0.0
 42
1.0
  0
SEQEND
  5
147D
  8
0
 62
     7
  0
POLYLINE
  5
98B
  8
0
 62
     7
 66
     1
 10
0.0
 20
0.0
 30
0.0
 70
     1
 40
0.005
 41
0.005
  0
VERTEX
  5
147E
  8
0
 62
     7
 10
4.9974999999999987
 20
5.0
 30
0.0
 42
1.0
  0
VERTEX
  5
147F
  8
0
 62
     7
 10
5.0025000000000004
 20
5.0
 30
0.0
 42
1.0
  0
SEQEND
  5
1480
  8
0
 62
     7
  0
POLYLINE
  5
98F
  8
0
 62
     7
 66
     1
 10
0.0
 20
0.0
 30
0.0
 40
0.01
 41
0.01
  0
VERTEX
  5
1481
  8
0
 62
     7
 10
1.0
 20
1.0
 30
0.0
  0
VERTEX
  5
1482
  8
0
 62
     7
 10
1.0
 20
5.0
 30
0.0
  0
SEQEND
  5
1483
  8
0
 62
     7
  0
POLYLINE
  5
993
  8
0
 62
     7
 66
     1
 10
0.0
 20
0.0
 30
0.0
 70
     1
 40
0.005
 41
0.005
  0
VERTEX
  5
1484
  8
0
 62
     7
 10
0.9975000000000001
 20
1.0
 30
0.0
 42
1.0
  0
VERTEX
  5
1485
  8
0
 62
     7
 10
1.0024999999999991
 20
1.0
 30
0.0
 42
1.0
  0
SEQEND
  5
1486
  8
0
 62
     7
  0
POLYLINE
  5
997
  8
0
 62
     7
 66
     1
 10
0.0
 20
0.0
 30
0.0
 70
     1
 40
0.005
 41
0.005
  0
VERTEX
  5
1487
  8
0
 62
     7
 10
0.9975000000000001
 20
5.0
 30
0.0
 42
1.0
  0
VERTEX
  5
1488
  8
0
 62
     7
 10
1.0024999999999991
 20
5.0
 30
0.0
 42
1.0
  0
SEQEND
  5
1489
  8
0
 62
     7
  0
POLYLINE
  5
99B
  8
0
 62
     7
 66
     1
 10
0.0
 20
0.0
 30
0.0
 40
0.01
 41
0.01
  0
VERTEX
  5
148A
  8
0
 62
     7
 10
1.0
 20
5.0
 30
0.0
  0
VERTEX
  5
148B
  8
0
 62
     7
 10
5.0
 20
5.0
 30
0.0
  0
SEQEND
  5
148C
  8
0
 62
     7
  0
POLYLINE
  5
99F
  8
0
 62
     7
 66
     1
 10
0.0
 20
0.0
 30
0.0
 70
     1
 40
0.005
 41
0.005
  0
VERTEX
  5
148D
  8
0
 62
     7
 10
0.9975000000000001
 20
5.0
 30
0.0
 42
1.0
  0
VERTEX
  5
148E
  8
0
 62
     7
 10
1.0024999999999991
 20
5.0
 30
0.0
 42
1.0
  0
SEQEND
  5
148F
  8
0
 62
     7
  0
POLYLINE
  5
9A3
  8
0
 62
     7
 66
     1
 10
0.0
 20
0.0
 30
0.0
 70
     1
 40
0.005
 41
0.005
  0
VERTEX
  5
1490
  8
0
 62
     7
 10
4.9974999999999987
 20
5.0
 30
0.0
 42
1.0
  0
VERTEX
  5
1491
  8
0
 62
     7
 10
5.0025000000000004
 20
5.0
 30
0.0
 42
1.0
  0
SEQEND
  5
1492
  8
0
 62
     7
  0
POLYLINE
  5
9A7
  8
0
 62
     7
 66
     1
 10
0.0
 20
0.0
 30
0.0
 40
0.01
 41
0.01
  0
VERTEX
  5
1493
  8
0
 62
     7
 10
1.0
 20
1.0
 30
0.0
  0
VERTEX
  5
1494
  8
0
 62
     7
 10
5.0
 20
1.0
 30
0.0
  0
SEQEND
  5
1495
  8
0
 62
     7
  0
POLYLINE
  5
9AB
  8
0
 62
     7
 66
     1
 10
0.0
 20
0.0
 30
0.0
 70
     1
 40
0.005
 41
0.005
  0
VERTEX
  5
1496
  8
0
 62
     7
 10
0.9975000000000001
 20
1.0
 30
0.0
 42
1.0
  0
VERTEX
  5
1497
  8
0
 62
     7
 10
1.0024999999999991
 20
1.0
 30
0.0
 42
1.0
  0
SEQEND
  5
1498
  8
0
 62
     7
  0
POLYLINE
  5
9AF
  8
0
 62
     7
 66
     1
 10
0.0
 20
0.0
 30
0.0
 70
     1
 40
0.005
 41
0.005
  0
VERTEX
  5
1499
  8
0
 62
     7
 10
4.9974999999999987
 20
1.0
 30
0.0
 42
1.0
  0
VERTEX
  5
149A
  8
0
 62
     7
 10
5.0025000000000004
 20
1.0
 30
0.0
 42
1.0
  0
SEQEND
  5
149B
  8
0
 62
     7
  0
TEXT
  5
9B3
  8
0
 62
     7
 10
1.6000000000000001
 20
1.3
 30
0.0
 40
0.1
  1
Test Chart by Bertho Boman
  0
TEXT
  5
9B4
  8
0
 62
     7
 10
1.1999999999999991
 20
1.1000000000000001
 30
0.0
 40
0.1
  1
http://www.vinland.com/USAF-1951.html
  0
TEXT
  5
9B5
  8
0
 62
     7
 10
3.6000000000000001
 20
4.9500000000000002
 30
0.0
 40
0.04
  1
1
 50
270.0
  0
TEXT
  5
9B6
  8
0
 62
     7
 10
3.7000000000000002
 20
4.9500000000000002
 30
0.0
 40
0.04
  1
2
 50
270.0
  0
TEXT
  5
9B7
  8
0
 62
     7
 10
3.7999999999999989
 20
4.9500000000000002
 30
0.0
 40
0.04
  1
3
 50
270.0
  0
TEXT
  5
9B8
  8
0
 62
     7
 10
4.0999999999999988
 20
4.9500000000000002
 30
0.0
 40
0.04
  1
6
 50
270.0
  0
TEXT
  5
9B9
  8
0
 62
     7
 10
4.2000000000000002
 20
4.9500000000000002
 30
0.0
 40
0.04
  1
7
 50
270.0
  0
TEXT
  5
9BA
  8
0
 62
     7
 10
4.2999999999999989
 20
4.9500000000000002
 30
0.0
 40
0.04
  1
8
 50
270.0
  0
TEXT
  5
9BB
  8
0
 62
     7
 10
4.4000000000000004
 20
4.9500000000000002
 30
0.0
 40
0.04
  1
9
 50
270.0
  0
TEXT
  5
9BC
  8
0
 62
     7
 10
4.5999999999999988
 20
4.9749999999999988
 30
0.0
 40
0.04
  1
10
 50
270.0
  0
TEXT
  5
9BD
  8
0
 62
     7
 10
3.8999999999999999
 20
4.9500000000000002
 30
0.0
 40
0.04
  1
4
 50
270.0
  0
TEXT
  5
9BE
  8
0
 62
     7
 10
4.0
 20
4.9500000000000002
 30
0.0
 40
0.04
  1
5
 50
270.0
  0
TEXT
  5
9BF
  8
0
 62
     7
 10
1.05
 20
3.6000000000000001
 30
0.0
 40
0.04
  1
1
  0
TEXT
  5
9C0
  8
0
 62
     7
 10
1.05
 20
3.7000000000000002
 30
0.0
 40
0.04
  1
2
  0
TEXT
  5
9C1
  8
0
 62
     7
 10
1.05
 20
3.7999999999999989
 30
0.0
 40
0.04
  1
3
  0
TEXT
  5
9C2
  8
0
 62
     7
 10
1.05
 20
4.0999999999999988
 30
0.0
 40
0.04
  1
6
  0
TEXT
  5
9C3
  8
0
 62
     7
 10
1.05
 20
4.2000000000000002
 30
0.0
 40
0.04
  1
7
  0
TEXT
  5
9C4
  8
0
 62
     7
 10
1.05
 20
4.2999999999999989
 30
0.0
 40
0.04
  1
8
  0
TEXT
  5
9C5
  8
0
 62
     7
 10
1.05
 20
4.4000000000000004
 30
0.0
 40
0.04
  1
9
  0
TEXT
  5
9C6
  8
0
 62
     7
 10
1.024999999999999
 20
4.5999999999999988
 30
0.0
 40
0.04
  1
10
  0
TEXT
  5
9C7
  8
0
 62
     7
 10
1.05
 20
3.8999999999999999
 30
0.0
 40
0.04
  1
4
  0
TEXT
  5
9C8
  8
0
 62
     7
 10
1.05
 20
4.0
 30
0.0
 40
0.04
  1
5
  0
POLYLINE
  5
9C9
  8
0
 62
     7
 66
     1
 10
0.0
 20
0.0
 30
0.0
 40
0.01
 41
0.01
  0
VERTEX
  5
149C
  8
0
 62
     7
 10
0.89
 20
5.0
 30
0.0
  0
VERTEX
  5
149D
  8
0
 62
     7
 10
0.9099999999999999
 20
5.0
 30
0.0
  0
SEQEND
  5
149E
  8
0
 62
     7
  0
POLYLINE
  5
9CD
  8
0
 62
     7
 66
     1
 10
0.0
 20
0.0
 30
0.0
 70
     1
 40
0.005
 41
0.005
  0
VERTEX
  5
149F
  8
0
 62
     7
 10
0.8875
 20
5.0
 30
0.0
 42
1.0
  0
VERTEX
  5
14A0
  8
0
 62
     7
 10
0.8924999999999999
 20
5.0
 30
0.0
 42
1.0
  0
SEQEND
  5
14A1
  8
0
 62
     7
  0
POLYLINE
  5
9D1
  8
0
 62
     7
 66
     1
 10
0.0
 20
0.0
 30
0.0
 70
     1
 40
0.005
 41
0.005
  0
VERTEX
  5
14A2
  8
0
 62
     7
 10
0.9074999999999999
 20
5.0
 30
0.0
 42
1.0
  0
VERTEX
  5
14A3
  8
0
 62
     7
 10
0.9125
 20
5.0
 30
0.0
 42
1.0
  0
SEQEND
  5
14A4
  8
0
 62
     7
  0
POLYLINE
  5
9D5
  8
0
 62
     7
 66
     1
 10
0.0
 20
0.0
 30
0.0
 40
0.01
 41
0.01
  0
VERTEX
  5
14A5
  8
0
 62
     7
 10
0.89
 20
1.0
 30
0.0
  0
VERTEX
  5
14A6
  8
0
 62
     7
 10
0.9099999999999999
 20
1.0
 30
0.0
  0
SEQEND
  5
14A7
  8
0
 62
     7
  0
POLYLINE
  5
9D9
  8
0
 62
     7
 66
     1
 10
0.0
 20
0.0
 30
0.0
 70
     1
 40
0.005
 41
0.005
  0
VERTEX
  5
14A8
  8
0
 62
     7
 10
0.8875
 20
1.0
 30
0.0
 42
1.0
  0
VERTEX
  5
14A9
  8
0
 62
     7
 10
0.8924999999999999
 20
1.0
 30
0.0
 42
1.0
  0
SEQEND
  5
14AA
  8
0
 62
     7
  0
POLYLINE
  5
9DD
  8
0
 62
     7
 66
     1
 10
0.0
 20
0.0
 30
0.0
 70
     1
 40
0.005
 41
0.005
  0
VERTEX
  5
14AB
  8
0
 62
     7
 10
0.9074999999999999
 20
1.0
 30
0.0
 42
1.0
  0
VERTEX
  5
14AC
  8
0
 62
     7
 10
0.9125
 20
1.0
 30
0.0
 42
1.0
  0
SEQEND
  5
14AD
  8
0
 62
     7
  0
POLYLINE
  5
9E1
  8
0
 62
     7
 66
     1
 10
0.0
 20
0.0
 30
0.0
 40
0.01
 41
0.01
  0
VERTEX
  5
14AE
  8
0
 62
     7
 10
0.9
 20
5.0
 30
0.0
  0
VERTEX
  5
14AF
  8
0
 62
     7
 10
0.9200000000000002
 20
4.9400000000000004
 30
0.0
  0
SEQEND
  5
14B0
  8
0
 62
     7
  0
POLYLINE
  5
9E5
  8
0
 62
     7
 66
     1
 10
0.0
 20
0.0
 30
0.0
 70
     1
 40
0.005
 41
0.005
  0
VERTEX
  5
14B1
  8
0
 62
     7
 10
0.8974999999999999
 20
5.0
 30
0.0
 42
1.0
  0
VERTEX
  5
14B2
  8
0
 62
     7
 10
0.9025
 20
5.0
 30
0.0
 42
1.0
  0
SEQEND
  5
14B3
  8
0
 62
     7
  0
POLYLINE
  5
9E9
  8
0
 62
     7
 66
     1
 10
0.0
 20
0.0
 30
0.0
 70
     1
 40
0.005
 41
0.005
  0
VERTEX
  5
14B4
  8
0
 62
     7
 10
0.9175
 20
4.9400000000000004
 30
0.0
 42
1.0
  0
VERTEX
  5
14B5
  8
0
 62
     7
 10
0.9224999999999999
 20
4.9400000000000004
 30
0.0
 42
1.0
  0
SEQEND
  5
14B6
  8
0
 62
     7
  0
POLYLINE
  5
9ED
  8
0
 62
     7
 66
     1
 10
0.0
 20
0.0
 30
0.0
 40
0.01
 41
0.01
  0
VERTEX
  5
14B7
  8
0
 62
     7
 10
0.88
 20
4.9400000000000004
 30
0.0
  0
VERTEX
  5
14B8
  8
0
 62
     7
 10
0.9
 20
5.0
 30
0.0
  0
SEQEND
  5
14B9
  8
0
 62
     7
  0
POLYLINE
  5
9F1
  8
0
 62
     7
 66
     1
 10
0.0
 20
0.0
 30
0.0
 70
     1
 40
0.005
 41
0.005
  0
VERTEX
  5
14BA
  8
0
 62
     7
 10
0.8774999999999998
 20
4.9400000000000004
 30
0.0
 42
1.0
  0
VERTEX
  5
14BB
  8
0
 62
     7
 10
0.8825
 20
4.9400000000000004
 30
0.0
 42
1.0
  0
SEQEND
  5
14BC
  8
0
 62
     7
  0
POLYLINE
  5
9F5
  8
0
 62
     7
 66
     1
 10
0.0
 20
0.0
 30
0.0
 70
     1
 40
0.005
 41
0.005
  0
VERTEX
  5
14BD
  8
0
 62
     7
 10
0.8974999999999999
 20
5.0
 30
0.0
 42
1.0
  0
VERTEX
  5
14BE
  8
0
 62
     7
 10
0.9025
 20
5.0
 30
0.0
 42
1.0
  0
SEQEND
  5
14BF
  8
0
 62
     7
  0
POLYLINE
  5
9F9
  8
0
 62
     7
 66
     1
 10
0.0
 20
0.0
 30
0.0
 40
0.01
 41
0.01
  0
VERTEX
  5
14C0
  8
0
 62
     7
 10
0.9
 20
1.0
 30
0.0
  0
VERTEX
  5
14C1
  8
0
 62
     7
 10
0.9200000000000002
 20
1.0600000000000001
 30
0.0
  0
SEQEND
  5
14C2
  8
0
 62
     7
  0
POLYLINE
  5
9FD
  8
0
 62
     7
 66
     1
 10
0.0
 20
0.0
 30
0.0
 70
     1
 40
0.005
 41
0.005
  0
VERTEX
  5
14C3
  8
0
 62
     7
 10
0.8974999999999999
 20
1.0
 30
0.0
 42
1.0
  0
VERTEX
  5
14C4
  8
0
 62
     7
 10
0.9025
 20
1.0
 30
0.0
 42
1.0
  0
SEQEND
  5
14C5
  8
0
 62
     7
  0
POLYLINE
  5
A01
  8
0
 62
     7
 66
     1
 10
0.0
 20
0.0
 30
0.0
 70
     1
 40
0.005
 41
0.005
  0
VERTEX
  5
14C6
  8
0
 62
     7
 10
0.9175
 20
1.0600000000000001
 30
0.0
 42
1.0
  0
VERTEX
  5
14C7
  8
0
 62
     7
 10
0.9224999999999999
 20
1.0600000000000001
 30
0.0
 42
1.0
  0
SEQEND
  5
14C8
  8
0
 62
     7
  0
POLYLINE
  5
A05
  8
0
 62
     7
 66
     1
 10
0.0
 20
0.0
 30
0.0
 40
0.01
 41
0.01
  0
VERTEX
  5
14C9
  8
0
 62
     7
 10
0.88
 20
1.0600000000000001
 30
0.0
  0
VERTEX
  5
14CA
  8
0
 62
     7
 10
0.9
 20
1.0
 30
0.0
  0
SEQEND
  5
14CB
  8
0
 62
     7
  0
POLYLINE
  5
A09
  8
0
 62
     7
 66
     1
 10
0.0
 20
0.0
 30
0.0
 70
     1
 40
0.005
 41
0.005
  0
VERTEX
  5
14CC
  8
0
 62
     7
 10
0.8774999999999998
 20
1.0600000000000001
 30
0.0
 42
1.0
  0
VERTEX
  5
14CD
  8
0
 62
     7
 10
0.8825
 20
1.0600000000000001
 30
0.0
 42
1.0
  0
SEQEND
  5
14CE
  8
0
 62
     7
  0
POLYLINE
  5
A0D
  8
0
 62
     7
 66
     1
 10
0.0
 20
0.0
 30
0.0
 70
     1
 40
0.005
 41
0.005
  0
VERTEX
  5
14CF
  8
0
 62
     7
 10
0.8974999999999999
 20
1.0
 30
0.0
 42
1.0
  0
VERTEX
  5
14D0
  8
0
 62
     7
 10
0.9025
 20
1.0
 30
0.0
 42
1.0
  0
SEQEND
  5
14D1
  8
0
 62
     7
  0
POLYLINE
  5
A11
  8
0
 62
     7
 66
     1
 10
0.0
 20
0.0
 30
0.0
 40
0.01
 41
0.01
  0
VERTEX
  5
14D2
  8
0
 62
     7
 10
0.9
 20
3.2809140000000001
 30
0.0
  0
VERTEX
  5
14D3
  8
0
 62
     7
 10
0.9
 20
5.0
 30
0.0
  0
SEQEND
  5
14D4
  8
0
 62
     7
  0
POLYLINE
  5
A15
  8
0
 62
     7
 66
     1
 10
0.0
 20
0.0
 30
0.0
 70
     1
 40
0.005
 41
0.005
  0
VERTEX
  5
14D5
  8
0
 62
     7
 10
0.8974999999999999
 20
3.2809140000000001
 30
0.0
 42
1.0
  0
VERTEX
  5
14D6
  8
0
 62
     7
 10
0.9025
 20
3.2809140000000001
 30
0.0
 42
1.0
  0
SEQEND
  5
14D7
  8
0
 62
     7
  0
POLYLINE
  5
A19
  8
0
 62
     7
 66
     1
 10
0.0
 20
0.0
 30
0.0
 70
     1
 40
0.005
 41
0.005
  0
VERTEX
  5
14D8
  8
0
 62
     7
 10
0.8974999999999999
 20
5.0
 30
0.0
 42
1.0
  0
VERTEX
  5
14D9
  8
0
 62
     7
 10
0.9025
 20
5.0
 30
0.0
 42
1.0
  0
SEQEND
  5
14DA
  8
0
 62
     7
  0
POLYLINE
  5
A1D
  8
0
 62
     7
 66
     1
 10
0.0
 20
0.0
 30
0.0
 40
0.01
 41
0.01
  0
VERTEX
  5
14DB
  8
0
 62
     7
 10
0.9
 20
1.0
 30
0.0
  0
VERTEX
  5
14DC
  8
0
 62
     7
 10
0.9
 20
2.719085999999999
 30
0.0
  0
SEQEND
  5
14DD
  8
0
 62
     7
  0
POLYLINE
  5
A21
  8
0
 62
     7
 66
     1
 10
0.0
 20
0.0
 30
0.0
 70
     1
 40
0.005
 41
0.005
  0
VERTEX
  5
14DE
  8
0
 62
     7
 10
0.8974999999999999
 20
1.0
 30
0.0
 42
1.0
  0
VERTEX
  5
14DF
  8
0
 62
     7
 10
0.9025
 20
1.0
 30
0.0
 42
1.0
  0
SEQEND
  5
14E0
  8
0
 62
     7
  0
POLYLINE
  5
A25
  8
0
 62
     7
 66
     1
 10
0.0
 20
0.0
 30
0.0
 70
     1
 40
0.005
 41
0.005
  0
VERTEX
  5
14E1
  8
0
 62
     7
 10
0.8974999999999999
 20
2.719085999999999
 30
0.0
 42
1.0
  0
VERTEX
  5
14E2
  8
0
 62
     7
 10
0.9025
 20
2.719085999999999
 30
0.0
 42
1.0
  0
SEQEND
  5
14E3
  8
0
 62
     7
  0
POLYLINE
  5
A29
  8
0
 62
     7
 66
     1
 10
0.0
 20
0.0
 30
0.0
 40
0.01
 41
0.01
  0
VERTEX
  5
14E4
  8
0
 62
     7
 10
5.0
 20
5.089999999999999
 30
0.0
  0
VERTEX
  5
14E5
  8
0
 62
     7
 10
5.0
 20
5.1100000000000003
 30
0.0
  0
SEQEND
  5
14E6
  8
0
 62
     7
  0
POLYLINE
  5
A2D
  8
0
 62
     7
 66
     1
 10
0.0
 20
0.0
 30
0.0
 70
     1
 40
0.005
 41
0.005
  0
VERTEX
  5
14E7
  8
0
 62
     7
 10
4.9974999999999987
 20
5.089999999999999
 30
0.0
 42
1.0
  0
VERTEX
  5
14E8
  8
0
 62
     7
 10
5.0025000000000004
 20
5.089999999999999
 30
0.0
 42
1.0
  0
SEQEND
  5
14E9
  8
0
 62
     7
  0
POLYLINE
  5
A31
  8
0
 62
     7
 66
     1
 10
0.0
 20
0.0
 30
0.0
 70
     1
 40
0.005
 41
0.005
  0
VERTEX
  5
14EA
  8
0
 62
     7
 10
4.9974999999999987
 20
5.1100000000000003
 30
0.0
 42
1.0
  0
VERTEX
  5
14EB
  8
0
 62
     7
 10
5.0025000000000004
 20
5.1100000000000003
 30
0.0
 42
1.0
  0
SEQEND
  5
14EC
  8
0
 62
     7
  0
POLYLINE
  5
A35
  8
0
 62
     7
 66
     1
 10
0.0
 20
0.0
 30
0.0
 40
0.01
 41
0.01
  0
VERTEX
  5
14ED
  8
0
 62
     7
 10
1.0
 20
5.089999999999999
 30
0.0
  0
VERTEX
  5
14EE
  8
0
 62
     7
 10
1.0
 20
5.1100000000000003
 30
0.0
  0
SEQEND
  5
14EF
  8
0
 62
     7
  0
POLYLINE
  5
A39
  8
0
 62
     7
 66
     1
 10
0.0
 20
0.0
 30
0.0
 70
     1
 40
0.005
 41
0.005
  0
VERTEX
  5
14F0
  8
0
 62
     7
 10
0.9975000000000001
 20
5.089999999999999
 30
0.0
 42
1.0
  0
VERTEX
  5
14F1
  8
0
 62
     7
 10
1.0024999999999991
 20
5.089999999999999
 30
0.0
 42
1.0
  0
SEQEND
  5
14F2
  8
0
 62
     7
  0
POLYLINE
  5
A3D
  8
0
 62
     7
 66
     1
 10
0.0
 20
0.0
 30
0.0
 70
     1
 40
0.005
 41
0.005
  0
VERTEX
  5
14F3
  8
0
 62
     7
 10
0.9975000000000001
 20
5.1100000000000003
 30
0.0
 42
1.0
  0
VERTEX
  5
14F4
  8
0
 62
     7
 10
1.0024999999999991
 20
5.1100000000000003
 30
0.0
 42
1.0
  0
SEQEND
  5
14F5
  8
0
 62
     7
  0
POLYLINE
  5
A41
  8
0
 62
     7
 66
     1
 10
0.0
 20
0.0
 30
0.0
 40
0.01
 41
0.01
  0
VERTEX
  5
14F6
  8
0
 62
     7
 10
4.9400000000000004
 20
5.0800000000000001
 30
0.0
  0
VERTEX
  5
14F7
  8
0
 62
     7
 10
5.0
 20
5.0999999999999988
 30
0.0
  0
SEQEND
  5
14F8
  8
0
 62
     7
  0
POLYLINE
  5
A45
  8
0
 62
     7
 66
     1
 10
0.0
 20
0.0
 30
0.0
 70
     1
 40
0.005
 41
0.005
  0
VERTEX
  5
14F9
  8
0
 62
     7
 10
4.9375
 20
5.0800000000000001
 30
0.0
 42
1.0
  0
VERTEX
  5
14FA
  8
0
 62
     7
 10
4.942499999999999
 20
5.0800000000000001
 30
0.0
 42
1.0
  0
SEQEND
  5
14FB
  8
0
 62
     7
  0
POLYLINE
  5
A49
  8
0
 62
     7
 66
     1
 10
0.0
 20
0.0
 30
0.0
 70
     1
 40
0.005
 41
0.005
  0
VERTEX
  5
14FC
  8
0
 62
     7
 10
4.9974999999999987
 20
5.0999999999999988
 30
0.0
 42
1.0
  0
VERTEX
  5
14FD
  8
0
 62
     7
 10
5.0025000000000004
 20
5.0999999999999988
 30
0.0
 42
1.0
  0
SEQEND
  5
14FE
  8
0
 62
     7
  0
POLYLINE
  5
A4D
  8
0
 62
     7
 66
     1
 10
0.0
 20
0.0
 30
0.0
 40
0.01
 41
0.01
  0
VERTEX
  5
14FF
  8
0
 62
     7
 10
4.9400000000000004
 20
5.1200000000000001
 30
0.0
  0
VERTEX
  5
1500
  8
0
 62
     7
 10
5.0
 20
5.0999999999999988
 30
0.0
  0
SEQEND
  5
1501
  8
0
 62
     7
  0
POLYLINE
  5
A51
  8
0
 62
     7
 66
     1
 10
0.0
 20
0.0
 30
0.0
 70
     1
 40
0.005
 41
0.005
  0
VERTEX
  5
1502
  8
0
 62
     7
 10
4.9375
 20
5.1200000000000001
 30
0.0
 42
1.0
  0
VERTEX
  5
1503
  8
0
 62
     7
 10
4.942499999999999
 20
5.1200000000000001
 30
0.0
 42
1.0
  0
SEQEND
  5
1504
  8
0
 62
     7
  0
POLYLINE
  5
A55
  8
0
 62
     7
 66
     1
 10
0.0
 20
0.0
 30
0.0
 70
     1
 40
0.005
 41
0.005
  0
VERTEX
  5
1505
  8
0
 62
     7
 10
4.9974999999999987
 20
5.0999999999999988
 30
0.0
 42
1.0
  0
VERTEX
  5
1506
  8
0
 62
     7
 10
5.0025000000000004
 20
5.0999999999999988
 30
0.0
 42
1.0
  0
SEQEND
  5
1507
  8
0
 62
     7
  0
POLYLINE
  5
A59
  8
0
 62
     7
 66
     1
 10
0.0
 20
0.0
 30
0.0
 40
0.01
 41
0.01
  0
VERTEX
  5
1508
  8
0
 62
     7
 10
1.0
 20
5.0999999999999988
 30
0.0
  0
VERTEX
  5
1509
  8
0
 62
     7
 10
1.0600000000000001
 20
5.0800000000000001
 30
0.0
  0
SEQEND
  5
150A
  8
0
 62
     7
  0
POLYLINE
  5
A5D
  8
0
 62
     7
 66
     1
 10
0.0
 20
0.0
 30
0.0
 70
     1
 40
0.005
 41
0.005
  0
VERTEX
  5
150B
  8
0
 62
     7
 10
0.9975000000000001
 20
5.0999999999999988
 30
0.0
 42
1.0
  0
VERTEX
  5
150C
  8
0
 62
     7
 10
1.0024999999999991
 20
5.0999999999999988
 30
0.0
 42
1.0
  0
SEQEND
  5
150D
  8
0
 62
     7
  0
POLYLINE
  5
A61
  8
0
 62
     7
 66
     1
 10
0.0
 20
0.0
 30
0.0
 70
     1
 40
0.005
 41
0.005
  0
VERTEX
  5
150E
  8
0
 62
     7
 10
1.0575000000000001
 20
5.0800000000000001
 30
0.0
 42
1.0
  0
VERTEX
  5
150F
  8
0
 62
     7
 10
1.0625
 20
5.0800000000000001
 30
0.0
 42
1.0
  0
SEQEND
  5
1510
  8
0
 62
     7
  0
POLYLINE
  5
A65
  8
0
 62
     7
 66
     1
 10
0.0
 20
0.0
 30
0.0
 40
0.01
 41
0.01
  0
VERTEX
  5
1511
  8
0
 62
     7
 10
1.0
 20
5.0999999999999988
 30
0.0
  0
VERTEX
  5
1512
  8
0
 62
     7
 10
1.0600000000000001
 20
5.1200000000000001
 30
0.0
  0
SEQEND
  5
1513
  8
0
 62
     7
  0
POLYLINE
  5
A69
  8
0
 62
     7
 66
     1
 10
0.0
 20
0.0
 30
0.0
 70
     1
 40
0.005
 41
0.005
  0
VERTEX
  5
1514
  8
0
 62
     7
 10
0.9975000000000001
 20
5.0999999999999988
 30
0.0
 42
1.0
  0
VERTEX
  5
1515
  8
0
 62
     7
 10
1.0024999999999991
 20
5.0999999999999988
 30
0.0
 42
1.0
  0
SEQEND
  5
1516
  8
0
 62
     7
  0
POLYLINE
  5
A6D
  8
0
 62
     7
 66
     1
 10
0.0
 20
0.0
 30
0.0
 70
     1
 40
0.005
 41
0.005
  0
VERTEX
  5
1517
  8
0
 62
     7
 10
1.0575000000000001
 20
5.1200000000000001
 30
0.0
 42
1.0
  0
VERTEX
  5
1518
  8
0
 62
     7
 10
1.0625
 20
5.1200000000000001
 30
0.0
 42
1.0
  0
SEQEND
  5
1519
  8
0
 62
     7
  0
POLYLINE
  5
A71
  8
0
 62
     7
 66
     1
 10
0.0
 20
0.0
 30
0.0
 40
0.01
 41
0.01
  0
VERTEX
  5
151A
  8
0
 62
     7
 10
3.2809140000000001
 20
5.0999999999999988
 30
0.0
  0
VERTEX
  5
151B
  8
0
 62
     7
 10
5.0
 20
5.0999999999999988
 30
0.0
  0
SEQEND
  5
151C
  8
0
 62
     7
  0
POLYLINE
  5
A75
  8
0
 62
     7
 66
     1
 10
0.0
 20
0.0
 30
0.0
 70
     1
 40
0.005
 41
0.005
  0
VERTEX
  5
151D
  8
0
 62
     7
 10
3.2784140000000002
 20
5.0999999999999988
 30
0.0
 42
1.0
  0
VERTEX
  5
151E
  8
0
 62
     7
 10
3.2834140000000001
 20
5.0999999999999988
 30
0.0
 42
1.0
  0
SEQEND
  5
151F
  8
0
 62
     7
  0
POLYLINE
  5
A79
  8
0
 62
     7
 66
     1
 10
0.0
 20
0.0
 30
0.0
 70
     1
 40
0.005
 41
0.005
  0
VERTEX
  5
1520
  8
0
 62
     7
 10
4.9974999999999987
 20
5.0999999999999988
 30
0.0
 42
1.0
  0
VERTEX
  5
1521
  8
0
 62
     7
 10
5.0025000000000004
 20
5.0999999999999988
 30
0.0
 42
1.0
  0
SEQEND
  5
1522
  8
0
 62
     7
  0
POLYLINE
  5
A7D
  8
0
 62
     7
 66
     1
 10
0.0
 20
0.0
 30
0.0
 40
0.01
 41
0.01
  0
VERTEX
  5
1523
  8
0
 62
     7
 10
1.0
 20
5.0999999999999988
 30
0.0
  0
VERTEX
  5
1524
  8
0
 62
     7
 10
2.719085999999999
 20
5.0999999999999988
 30
0.0
  0
SEQEND
  5
1525
  8
0
 62
     7
  0
POLYLINE
  5
A81
  8
0
 62
     7
 66
     1
 10
0.0
 20
0.0
 30
0.0
 70
     1
 40
0.005
 41
0.005
  0
VERTEX
  5
1526
  8
0
 62
     7
 10
0.9975000000000001
 20
5.0999999999999988
 30
0.0
 42
1.0
  0
VERTEX
  5
1527
  8
0
 62
     7
 10
1.0024999999999991
 20
5.0999999999999988
 30
0.0
 42
1.0
  0
SEQEND
  5
1528
  8
0
 62
     7
  0
POLYLINE
  5
A85
  8
0
 62
     7
 66
     1
 10
0.0
 20
0.0
 30
0.0
 70
     1
 40
0.005
 41
0.005
  0
VERTEX
  5
1529
  8
0
 62
     7
 10
2.7165859999999991
 20
5.0999999999999988
 30
0.0
 42
1.0
  0
VERTEX
  5
152A
  8
0
 62
     7
 10
2.721585999999999
 20
5.0999999999999988
 30
0.0
 42
1.0
  0
SEQEND
  5
152B
  8
0
 62
     7
  0
TEXT
  5
A89
  8
0
 62
     7
 10
0.9359899999999999
 20
2.7290860000000001
 30
0.0
 40
0.06
  1
4000 (mil)
 50
90.0
  0
TEXT
  5
A8A
  8
0
 62
     7
 10
2.7290860000000001
 20
5.0640099999999988
 30
0.0
 40
0.06
  1
4000 (mil)
  0
POLYLINE
  5
CC6
  8
0
 62
     7
 66
     1
 10
0.0
 20
0.0
 30
0.0
 40
0.005
 41
0.005
  0
VERTEX
  5
1530
  8
0
 62
     7
 10
5.0
 20
5.1299999999999999
 30
0.0
  0
VERTEX
  5
1531
  8
0
 62
     7
 10
5.0
 20
5.3700000000000001
 30
0.0
  0
SEQEND
  5
1532
  8
0
 62
     7
  0
POLYLINE
  5
CC7
  8
0
 62
     7
 66
     1
 10
0.0
 20
0.0
 30
0.0
 70
     1
 40
0.0025
 41
0.0025
  0
VERTEX
  5
1533
  8
0
 62
     7
 10
4.9987500000000002
 20
5.1299999999999999
 30
0.0
 42
1.0
  0
VERTEX
  5
1534
  8
0
 62
     7
 10
5.0012499999999989
 20
5.1299999999999999
 30
0.0
 42
1.0
  0
SEQEND
  5
1535
  8
0
 62
     7
  0
POLYLINE
  5
CC8
  8
0
 62
     7
 66
     1
 10
0.0
 20
0.0
 30
0.0
 70
     1
 40
0.0025
 41
0.0025
  0
VERTEX
  5
1536
  8
0
 62
     7
 10
4.9987500000000002
 20
5.3700000000000001
 30
0.0
 42
1.0
  0
VERTEX
  5
1537
  8
0
 62
     7
 10
5.0012499999999989
 20
5.3700000000000001
 30
0.0
 42
1.0
  0
SEQEND
  5
1538
  8
0
 62
     7
  0
POLYLINE
  5
CC9
  8
0
 62
     7
 66
     1
 10
0.0
 20
0.0
 30
0.0
 40
0.005
 41
0.005
  0
VERTEX
  5
1539
  8
0
 62
     7
 10
5.0
 20
5.4299999999999997
 30
0.0
  0
VERTEX
  5
153A
  8
0
 62
     7
 10
5.0
 20
5.669999999999999
 30
0.0
  0
SEQEND
  5
153B
  8
0
 62
     7
  0
POLYLINE
  5
CCA
  8
0
 62
     7
 66
     1
 10
0.0
 20
0.0
 30
0.0
 70
     1
 40
0.0025
 41
0.0025
  0
VERTEX
  5
153C
  8
0
 62
     7
 10
4.9987500000000002
 20
5.4299999999999997
 30
0.0
 42
1.0
  0
VERTEX
  5
153D
  8
0
 62
     7
 10
5.0012499999999989
 20
5.4299999999999997
 30
0.0
 42
1.0
  0
SEQEND
  5
153E
  8
0
 62
     7
  0
POLYLINE
  5
CCB
  8
0
 62
     7
 66
     1
 10
0.0
 20
0.0
 30
0.0
 70
     1
 40
0.0025
 41
0.0025
  0
VERTEX
  5
153F
  8
0
 62
     7
 10
4.9987500000000002
 20
5.669999999999999
 30
0.0
 42
1.0
  0
VERTEX
  5
1540
  8
0
 62
     7
 10
5.0012499999999989
 20
5.669999999999999
 30
0.0
 42
1.0
  0
SEQEND
  5
1541
  8
0
 62
     7
  0
POLYLINE
  5
CCC
  8
0
 62
     7
 66
     1
 10
0.0
 20
0.0
 30
0.0
 40
0.005
 41
0.005
  0
VERTEX
  5
1542
  8
0
 62
     7
 10
4.7300000000000004
 20
5.4000000000000004
 30
0.0
  0
VERTEX
  5
1543
  8
0
 62
     7
 10
4.9699999999999989
 20
5.4000000000000004
 30
0.0
  0
SEQEND
  5
1544
  8
0
 62
     7
  0
POLYLINE
  5
CCD
  8
0
 62
     7
 66
     1
 10
0.0
 20
0.0
 30
0.0
 70
     1
 40
0.0025
 41
0.0025
  0
VERTEX
  5
1545
  8
0
 62
     7
 10
4.7287499999999989
 20
5.4000000000000004
 30
0.0
 42
1.0
  0
VERTEX
  5
1546
  8
0
 62
     7
 10
4.7312500000000002
 20
5.4000000000000004
 30
0.0
 42
1.0
  0
SEQEND
  5
1547
  8
0
 62
     7
  0
POLYLINE
  5
CCE
  8
0
 62
     7
 66
     1
 10
0.0
 20
0.0
 30
0.0
 70
     1
 40
0.0025
 41
0.0025
  0
VERTEX
  5
1548
  8
0
 62
     7
 10
4.96875
 20
5.4000000000000004
 30
0.0
 42
1.0
  0
VERTEX
  5
1549
  8
0
 62
     7
 10
4.9712500000000004
 20
5.4000000000000004
 30
0.0
 42
1.0
  0
SEQEND
  5
154A
  8
0
 62
     7
  0
POLYLINE
  5
CCF
  8
0
 62
     7
 66
     1
 10
0.0
 20
0.0
 30
0.0
 40
0.005
 41
0.005
  0
VERTEX
  5
154B
  8
0
 62
     7
 10
5.0300000000000002
 20
5.4000000000000004
 30
0.0
  0
VERTEX
  5
154C
  8
0
 62
     7
 10
5.2699999999999987
 20
5.4000000000000004
 30
0.0
  0
SEQEND
  5
154D
  8
0
 62
     7
  0
POLYLINE
  5
CD0
  8
0
 62
     7
 66
     1
 10
0.0
 20
0.0
 30
0.0
 70
     1
 40
0.0025
 41
0.0025
  0
VERTEX
  5
154E
  8
0
 62
     7
 10
5.0287499999999987
 20
5.4000000000000004
 30
0.0
 42
1.0
  0
VERTEX
  5
154F
  8
0
 62
     7
 10
5.03125
 20
5.4000000000000004
 30
0.0
 42
1.0
  0
SEQEND
  5
1550
  8
0
 62
     7
  0
POLYLINE
  5
CD1
  8
0
 62
     7
 66
     1
 10
0.0
 20
0.0
 30
0.0
 70
     1
 40
0.0025
 41
0.0025
  0
VERTEX
  5
1551
  8
0
 62
     7
 10
5.2687499999999989
 20
5.4000000000000004
 30
0.0
 42
1.0
  0
VERTEX
  5
1552
  8
0
 62
     7
 10
5.2712500000000002
 20
5.4000000000000004
 30
0.0
 42
1.0
  0
SEQEND
  5
1553
  8
0
 62
     7
  0
POLYLINE
  5
CD2
  8
0
 62
     7
 66
     1
 10
0.0
 20
0.0
 30
0.0
 70
     1
 40
0.005
 41
0.005
  0
VERTEX
  5
1554
  8
0
 62
     7
 10
5.0499999999999989
 20
5.4000000000000004
 30
0.0
 42
1.0
  0
VERTEX
  5
1555
  8
0
 62
     7
 10
4.9500000000000002
 20
5.4000000000000004
 30
0.0
 42
1.0
  0
SEQEND
  5
1556
  8
0
 62
     7
  0
POLYLINE
  5
CD3
  8
0
 62
     7
 66
     1
 10
0.0
 20
0.0
 30
0.0
 70
     1
 40
0.0025
 41
0.0025
  0
VERTEX
  5
1557
  8
0
 62
     7
 10
5.0487500000000001
 20
5.4000000000000004
 30
0.0
 42
1.0
  0
VERTEX
  5
1558
  8
0
 62
     7
 10
5.0512499999999987
 20
5.4000000000000004
 30
0.0
 42
1.0
  0
SEQEND
  5
1559
  8
0
 62
     7
  0
POLYLINE
  5
CD4
  8
0
 62
     7
 66
     1
 10
0.0
 20
0.0
 30
0.0
 70
     1
 40
0.0025
 41
0.0025
  0
VERTEX
  5
155A
  8
0
 62
     7
 10
4.9487500000000004
 20
5.4000000000000004
 30
0.0
 42
1.0
  0
VERTEX
  5
155B
  8
0
 62
     7
 10
4.951249999999999
 20
5.4000000000000004
 30
0.0
 42
1.0
  0
SEQEND
  5
155C
  8
0
 62
     7
  0
POLYLINE
  5
CD5
  8
0
 62
     7
 66
     1
 10
0.0
 20
0.0
 30
0.0
 70
     1
 40
0.005
 41
0.005
  0
VERTEX
  5
155D
  8
0
 62
     7
 10
5.0700000000000003
 20
5.4000000000000004
 30
0.0
 42
1.0
  0
VERTEX
  5
155E
  8
0
 62
     7
 10
4.9299999999999988
 20
5.4000000000000004
 30
0.0
 42
1.0
  0
SEQEND
  5
155F
  8
0
 62
     7
  0
POLYLINE
  5
CD6
  8
0
 62
     7
 66
     1
 10
0.0
 20
0.0
 30
0.0
 70
     1
 40
0.0025
 41
0.0025
  0
VERTEX
  5
1560
  8
0
 62
     7
 10
5.0687499999999988
 20
5.4000000000000004
 30
0.0
 42
1.0
  0
VERTEX
  5
1561
  8
0
 62
     7
 10
5.07125
 20
5.4000000000000004
 30
0.0
 42
1.0
  0
SEQEND
  5
1562
  8
0
 62
     7
  0
POLYLINE
  5
CD7
  8
0
 62
     7
 66
     1
 10
0.0
 20
0.0
 30
0.0
 70
     1
 40
0.0025
 41
0.0025
  0
VERTEX
  5
1563
  8
0
 62
     7
 10
4.9287499999999991
 20
5.4000000000000004
 30
0.0
 42
1.0
  0
VERTEX
  5
1564
  8
0
 62
     7
 10
4.9312500000000004
 20
5.4000000000000004
 30
0.0
 42
1.0
  0
SEQEND
  5
1565
  8
0
 62
     7
  0
POLYLINE
  5
CD8
  8
0
 62
     7
 66
     1
 10
0.0
 20
0.0
 30
0.0
 70
     1
 40
0.005
 41
0.005
  0
VERTEX
  5
1566
  8
0
 62
     7
 10
5.089999999999999
 20
5.4000000000000004
 30
0.0
 42
1.0
  0
VERTEX
  5
1567
  8
0
 62
     7
 10
4.9100000000000001
 20
5.4000000000000004
 30
0.0
 42
1.0
  0
SEQEND
  5
1568
  8
0
 62
     7
  0
POLYLINE
  5
CD9
  8
0
 62
     7
 66
     1
 10
0.0
 20
0.0
 30
0.0
 70
     1
 40
0.0025
 41
0.0025
  0
VERTEX
  5
1569
  8
0
 62
     7
 10
5.0887500000000001
 20
5.4000000000000004
 30
0.0
 42
1.0
  0
VERTEX
  5
156A
  8
0
 62
     7
 10
5.0912499999999987
 20
5.4000000000000004
 30
0.0
 42
1.0
  0
SEQEND
  5
156B
  8
0
 62
     7
  0
POLYLINE
  5
CDA
  8
0
 62
     7
 66
     1
 10
0.0
 20
0.0
 30
0.0
 70
     1
 40
0.0025
 41
0.0025
  0
VERTEX
  5
156C
  8
0
 62
     7
 10
4.9087500000000004
 20
5.4000000000000004
 30
0.0
 42
1.0
  0
VERTEX
  5
156D
  8
0
 62
     7
 10
4.911249999999999
 20
5.4000000000000004
 30
0.0
 42
1.0
  0
SEQEND
  5
156E
  8
0
 62
     7
  0
POLYLINE
  5
CDB
  8
0
 62
     7
 66
     1
 10
0.0
 20
0.0
 30
0.0
 70
     1
 40
0.005
 41
0.005
  0
VERTEX
  5
156F
  8
0
 62
     7
 10
5.1100000000000003
 20
5.4000000000000004
 30
0.0
 42
1.0
  0
VERTEX
  5
1570
  8
0
 62
     7
 10
4.8899999999999988
 20
5.4000000000000004
 30
0.0
 42
1.0
  0
SEQEND
  5
1571
  8
0
 62
     7
  0
POLYLINE
  5
CDC
  8
0
 62
     7
 66
     1
 10
0.0
 20
0.0
 30
0.0
 70
     1
 40
0.0025
 41
0.0025
  0
VERTEX
  5
1572
  8
0
 62
     7
 10
5.1087499999999988
 20
5.4000000000000004
 30
0.0
 42
1.0
  0
VERTEX
  5
1573
  8
0
 62
     7
 10
5.1112500000000001
 20
5.4000000000000004
 30
0.0
 42
1.0
  0
SEQEND
  5
1574
  8
0
 62
     7
  0
POLYLINE
  5
CDD
  8
0
 62
     7
 66
     1
 10
0.0
 20
0.0
 30
0.0
 70
     1
 40
0.0025
 41
0.0025
  0
VERTEX
  5
1575
  8
0
 62
     7
 10
4.888749999999999
 20
5.4000000000000004
 30
0.0
 42
1.0
  0
VERTEX
  5
1576
  8
0
 62
     7
 10
4.8912500000000003
 20
5.4000000000000004
 30
0.0
 42
1.0
  0
SEQEND
  5
1577
  8
0
 62
     7
  0
POLYLINE
  5
CDE
  8
0
 62
     7
 66
     1
 10
0.0
 20
0.0
 30
0.0
 70
     1
 40
0.005
 41
0.005
  0
VERTEX
  5
1578
  8
0
 62
     7
 10
5.129999999999999
 20
5.4000000000000004
 30
0.0
 42
1.0
  0
VERTEX
  5
1579
  8
0
 62
     7
 10
4.8700000000000001
 20
5.4000000000000004
 30
0.0
 42
1.0
  0
SEQEND
  5
157A
  8
0
 62
     7
  0
POLYLINE
  5
CDF
  8
0
 62
     7
 66
     1
 10
0.0
 20
0.0
 30
0.0
 70
     1
 40
0.0025
 41
0.0025
  0
VERTEX
  5
157B
  8
0
 62
     7
 10
5.1287500000000001
 20
5.4000000000000004
 30
0.0
 42
1.0
  0
VERTEX
  5
157C
  8
0
 62
     7
 10
5.1312499999999988
 20
5.4000000000000004
 30
0.0
 42
1.0
  0
SEQEND
  5
157D
  8
0
 62
     7
  0
POLYLINE
  5
CE0
  8
0
 62
     7
 66
     1
 10
0.0
 20
0.0
 30
0.0
 70
     1
 40
0.0025
 41
0.0025
  0
VERTEX
  5
157E
  8
0
 62
     7
 10
4.8687500000000004
 20
5.4000000000000004
 30
0.0
 42
1.0
  0
VERTEX
  5
157F
  8
0
 62
     7
 10
4.871249999999999
 20
5.4000000000000004
 30
0.0
 42
1.0
  0
SEQEND
  5
1580
  8
0
 62
     7
  0
POLYLINE
  5
CE1
  8
0
 62
     7
 66
     1
 10
0.0
 20
0.0
 30
0.0
 70
     1
 40
0.005
 41
0.005
  0
VERTEX
  5
1581
  8
0
 62
     7
 10
5.1500000000000004
 20
5.4000000000000004
 30
0.0
 42
1.0
  0
VERTEX
  5
1582
  8
0
 62
     7
 10
4.8499999999999988
 20
5.4000000000000004
 30
0.0
 42
1.0
  0
SEQEND
  5
1583
  8
0
 62
     7
  0
POLYLINE
  5
CE2
  8
0
 62
     7
 66
     1
 10
0.0
 20
0.0
 30
0.0
 70
     1
 40
0.0025
 41
0.0025
  0
VERTEX
  5
1584
  8
0
 62
     7
 10
5.1487499999999988
 20
5.4000000000000004
 30
0.0
 42
1.0
  0
VERTEX
  5
1585
  8
0
 62
     7
 10
5.1512500000000001
 20
5.4000000000000004
 30
0.0
 42
1.0
  0
SEQEND
  5
1586
  8
0
 62
     7
  0
POLYLINE
  5
CE3
  8
0
 62
     7
 66
     1
 10
0.0
 20
0.0
 30
0.0
 70
     1
 40
0.0025
 41
0.0025
  0
VERTEX
  5
1587
  8
0
 62
     7
 10
4.848749999999999
 20
5.4000000000000004
 30
0.0
 42
1.0
  0
VERTEX
  5
1588
  8
0
 62
     7
 10
4.8512500000000003
 20
5.4000000000000004
 30
0.0
 42
1.0
  0
SEQEND
  5
1589
  8
0
 62
     7
  0
POLYLINE
  5
CE4
  8
0
 62
     7
 66
     1
 10
0.0
 20
0.0
 30
0.0
 70
     1
 40
0.005
 41
0.005
  0
VERTEX
  5
158A
  8
0
 62
     7
 10
5.169999999999999
 20
5.4000000000000004
 30
0.0
 42
1.0
  0
VERTEX
  5
158B
  8
0
 62
     7
 10
4.8300000000000001
 20
5.4000000000000004
 30
0.0
 42
1.0
  0
SEQEND
  5
158C
  8
0
 62
     7
  0
POLYLINE
  5
CE5
  8
0
 62
     7
 66
     1
 10
0.0
 20
0.0
 30
0.0
 70
     1
 40
0.0025
 41
0.0025
  0
VERTEX
  5
158D
  8
0
 62
     7
 10
5.1687500000000002
 20
5.4000000000000004
 30
0.0
 42
1.0
  0
VERTEX
  5
158E
  8
0
 62
     7
 10
5.1712499999999988
 20
5.4000000000000004
 30
0.0
 42
1.0
  0
SEQEND
  5
158F
  8
0
 62
     7
  0
POLYLINE
  5
CE6
  8
0
 62
     7
 66
     1
 10
0.0
 20
0.0
 30
0.0
 70
     1
 40
0.0025
 41
0.0025
  0
VERTEX
  5
1590
  8
0
 62
     7
 10
4.8287500000000003
 20
5.4000000000000004
 30
0.0
 42
1.0
  0
VERTEX
  5
1591
  8
0
 62
     7
 10
4.8312499999999989
 20
5.4000000000000004
 30
0.0
 42
1.0
  0
SEQEND
  5
1592
  8
0
 62
     7
  0
POLYLINE
  5
CE7
  8
0
 62
     7
 66
     1
 10
0.0
 20
0.0
 30
0.0
 70
     1
 40
0.005
 41
0.005
  0
VERTEX
  5
1593
  8
0
 62
     7
 10
5.1900000000000004
 20
5.4000000000000004
 30
0.0
 42
1.0
  0
VERTEX
  5
1594
  8
0
 62
     7
 10
4.8099999999999987
 20
5.4000000000000004
 30
0.0
 42
1.0
  0
SEQEND
  5
1595
  8
0
 62
     7
  0
POLYLINE
  5
CE8
  8
0
 62
     7
 66
     1
 10
0.0
 20
0.0
 30
0.0
 70
     1
 40
0.0025
 41
0.0025
  0
VERTEX
  5
1596
  8
0
 62
     7
 10
5.1887499999999989
 20
5.4000000000000004
 30
0.0
 42
1.0
  0
VERTEX
  5
1597
  8
0
 62
     7
 10
5.1912500000000001
 20
5.4000000000000004
 30
0.0
 42
1.0
  0
SEQEND
  5
1598
  8
0
 62
     7
  0
POLYLINE
  5
CE9
  8
0
 62
     7
 66
     1
 10
0.0
 20
0.0
 30
0.0
 70
     1
 40
0.0025
 41
0.0025
  0
VERTEX
  5
1599
  8
0
 62
     7
 10
4.808749999999999
 20
5.4000000000000004
 30
0.0
 42
1.0
  0
VERTEX
  5
159A
  8
0
 62
     7
 10
4.8112500000000002
 20
5.4000000000000004
 30
0.0
 42
1.0
  0
SEQEND
  5
159B
  8
0
 62
     7
  0
POLYLINE
  5
CEA
  8
0
 62
     7
 66
     1
 10
0.0
 20
0.0
 30
0.0
 70
     1
 40
0.005
 41
0.005
  0
VERTEX
  5
159C
  8
0
 62
     7
 10
5.2099999999999991
 20
5.4000000000000004
 30
0.0
 42
1.0
  0
VERTEX
  5
159D
  8
0
 62
     7
 10
4.79
 20
5.4000000000000004
 30
0.0
 42
1.0
  0
SEQEND
  5
159E
  8
0
 62
     7
  0
POLYLINE
  5
CEB
  8
0
 62
     7
 66
     1
 10
0.0
 20
0.0
 30
0.0
 70
     1
 40
0.0025
 41
0.0025
  0
VERTEX
  5
159F
  8
0
 62
     7
 10
5.2087500000000002
 20
5.4000000000000004
 30
0.0
 42
1.0
  0
VERTEX
  5
15A0
  8
0
 62
     7
 10
5.2112499999999988
 20
5.4000000000000004
 30
0.0
 42
1.0
  0
SEQEND
  5
15A1
  8
0
 62
     7
  0
POLYLINE
  5
CEC
  8
0
 62
     7
 66
     1
 10
0.0
 20
0.0
 30
0.0
 70
     1
 40
0.0025
 41
0.0025
  0
VERTEX
  5
15A2
  8
0
 62
     7
 10
4.7887500000000003
 20
5.4000000000000004
 30
0.0
 42
1.0
  0
VERTEX
  5
15A3
  8
0
 62
     7
 10
4.7912499999999989
 20
5.4000000000000004
 30
0.0
 42
1.0
  0
SEQEND
  5
15A4
  8
0
 62
     7
  0
POLYLINE
  5
CED
  8
0
 62
     7
 66
     1
 10
0.0
 20
0.0
 30
0.0
 70
     1
 40
0.005
 41
0.005
  0
VERTEX
  5
15A5
  8
0
 62
     7
 10
5.2300000000000004
 20
5.4000000000000004
 30
0.0
 42
1.0
  0
VERTEX
  5
15A6
  8
0
 62
     7
 10
4.7699999999999987
 20
5.4000000000000004
 30
0.0
 42
1.0
  0
SEQEND
  5
15A7
  8
0
 62
     7
  0
POLYLINE
  5
CEE
  8
0
 62
     7
 66
     1
 10
0.0
 20
0.0
 30
0.0
 70
     1
 40
0.0025
 41
0.0025
  0
VERTEX
  5
15A8
  8
0
 62
     7
 10
5.2287499999999989
 20
5.4000000000000004
 30
0.0
 42
1.0
  0
VERTEX
  5
15A9
  8
0
 62
     7
 10
5.2312500000000002
 20
5.4000000000000004
 30
0.0
 42
1.0
  0
SEQEND
  5
15AA
  8
0
 62
     7
  0
POLYLINE
  5
CEF
  8
0
 62
     7
 66
     1
 10
0.0
 20
0.0
 30
0.0
 70
     1
 40
0.0025
 41
0.0025
  0
VERTEX
  5
15AB
  8
0
 62
     7
 10
4.7687499999999989
 20
5.4000000000000004
 30
0.0
 42
1.0
  0
VERTEX
  5
15AC
  8
0
 62
     7
 10
4.7712500000000002
 20
5.4000000000000004
 30
0.0
 42
1.0
  0
SEQEND
  5
15AD
  8
0
 62
     7
  0
POLYLINE
  5
CF0
  8
0
 62
     7
 66
     1
 10
0.0
 20
0.0
 30
0.0
 70
     1
 40
0.005
 41
0.005
  0
VERTEX
  5
15AE
  8
0
 62
     7
 10
5.25
 20
5.4000000000000004
 30
0.0
 42
1.0
  0
VERTEX
  5
15AF
  8
0
 62
     7
 10
4.75
 20
5.4000000000000004
 30
0.0
 42
1.0
  0
SEQEND
  5
15B0
  8
0
 62
     7
  0
POLYLINE
  5
CF1
  8
0
 62
     7
 66
     1
 10
0.0
 20
0.0
 30
0.0
 70
     1
 40
0.0025
 41
0.0025
  0
VERTEX
  5
15B1
  8
0
 62
     7
 10
5.2487500000000002
 20
5.4000000000000004
 30
0.0
 42
1.0
  0
VERTEX
  5
15B2
  8
0
 62
     7
 10
5.2512499999999989
 20
5.4000000000000004
 30
0.0
 42
1.0
  0
SEQEND
  5
15B3
  8
0
 62
     7
  0
POLYLINE
  5
CF2
  8
0
 62
     7
 66
     1
 10
0.0
 20
0.0
 30
0.0
 70
     1
 40
0.0025
 41
0.0025
  0
VERTEX
  5
15B4
  8
0
 62
     7
 10
4.7487500000000002
 20
5.4000000000000004
 30
0.0
 42
1.0
  0
VERTEX
  5
15B5
  8
0
 62
     7
 10
4.7512499999999989
 20
5.4000000000000004
 30
0.0
 42
1.0
  0
SEQEND
  5
15B6
  8
0
 62
     7
  0
POLYLINE
  5
CF5
  8
0
 62
     7
 66
     1
 10
0.0
 20
0.0
 30
0.0
 40
0.005
 41
0.005
  0
VERTEX
  5
15B7
  8
0
 62
     7
 10
5.0300000000000002
 20
0.6
 30
0.0
  0
VERTEX
  5
15B8
  8
0
 62
     7
 10
5.2699999999999987
 20
0.6
 30
0.0
  0
SEQEND
  5
15B9
  8
0
 62
     7
  0
POLYLINE
  5
CF6
  8
0
 62
     7
 66
     1
 10
0.0
 20
0.0
 30
0.0
 70
     1
 40
0.0025
 41
0.0025
  0
VERTEX
  5
15BA
  8
0
 62
     7
 10
5.0287499999999987
 20
0.6
 30
0.0
 42
1.0
  0
VERTEX
  5
15BB
  8
0
 62
     7
 10
5.03125
 20
0.6
 30
0.0
 42
1.0
  0
SEQEND
  5
15BC
  8
0
 62
     7
  0
POLYLINE
  5
CF7
  8
0
 62
     7
 66
     1
 10
0.0
 20
0.0
 30
0.0
 70
     1
 40
0.0025
 41
0.0025
  0
VERTEX
  5
15BD
  8
0
 62
     7
 10
5.2687499999999989
 20
0.6
 30
0.0
 42
1.0
  0
VERTEX
  5
15BE
  8
0
 62
     7
 10
5.2712500000000002
 20
0.6
 30
0.0
 42
1.0
  0
SEQEND
  5
15BF
  8
0
 62
     7
  0
POLYLINE
  5
CF8
  8
0
 62
     7
 66
     1
 10
0.0
 20
0.0
 30
0.0
 40
0.005
 41
0.005
  0
VERTEX
  5
15C0
  8
0
 62
     7
 10
4.7300000000000004
 20
0.6
 30
0.0
  0
VERTEX
  5
15C1
  8
0
 62
     7
 10
4.9699999999999989
 20
0.6
 30
0.0
  0
SEQEND
  5
15C2
  8
0
 62
     7
  0
POLYLINE
  5
CF9
  8
0
 62
     7
 66
     1
 10
0.0
 20
0.0
 30
0.0
 70
     1
 40
0.0025
 41
0.0025
  0
VERTEX
  5
15C3
  8
0
 62
     7
 10
4.7287499999999989
 20
0.6
 30
0.0
 42
1.0
  0
VERTEX
  5
15C4
  8
0
 62
     7
 10
4.7312500000000002
 20
0.6
 30
0.0
 42
1.0
  0
SEQEND
  5
15C5
  8
0
 62
     7
  0
POLYLINE
  5
CFA
  8
0
 62
     7
 66
     1
 10
0.0
 20
0.0
 30
0.0
 70
     1
 40
0.0025
 41
0.0025
  0
VERTEX
  5
15C6
  8
0
 62
     7
 10
4.96875
 20
0.6
 30
0.0
 42
1.0
  0
VERTEX
  5
15C7
  8
0
 62
     7
 10
4.9712500000000004
 20
0.6
 30
0.0
 42
1.0
  0
SEQEND
  5
15C8
  8
0
 62
     7
  0
POLYLINE
  5
CFB
  8
0
 62
     7
 66
     1
 10
0.0
 20
0.0
 30
0.0
 40
0.005
 41
0.005
  0
VERTEX
  5
15C9
  8
0
 62
     7
 10
5.0
 20
0.63
 30
0.0
  0
VERTEX
  5
15CA
  8
0
 62
     7
 10
5.0
 20
0.8699999999999999
 30
0.0
  0
SEQEND
  5
15CB
  8
0
 62
     7
  0
POLYLINE
  5
CFC
  8
0
 62
     7
 66
     1
 10
0.0
 20
0.0
 30
0.0
 70
     1
 40
0.0025
 41
0.0025
  0
VERTEX
  5
15CC
  8
0
 62
     7
 10
4.9987500000000002
 20
0.63
 30
0.0
 42
1.0
  0
VERTEX
  5
15CD
  8
0
 62
     7
 10
5.0012499999999989
 20
0.63
 30
0.0
 42
1.0
  0
SEQEND
  5
15CE
  8
0
 62
     7
  0
POLYLINE
  5
CFD
  8
0
 62
     7
 66
     1
 10
0.0
 20
0.0
 30
0.0
 70
     1
 40
0.0025
 41
0.0025
  0
VERTEX
  5
15CF
  8
0
 62
     7
 10
4.9987500000000002
 20
0.8699999999999999
 30
0.0
 42
1.0
  0
VERTEX
  5
15D0
  8
0
 62
     7
 10
5.0012499999999989
 20
0.8699999999999999
 30
0.0
 42
1.0
  0
SEQEND
  5
15D1
  8
0
 62
     7
  0
POLYLINE
  5
CFE
  8
0
 62
     7
 66
     1
 10
0.0
 20
0.0
 30
0.0
 40
0.005
 41
0.005
  0
VERTEX
  5
15D2
  8
0
 62
     7
 10
5.0
 20
0.33
 30
0.0
  0
VERTEX
  5
15D3
  8
0
 62
     7
 10
5.0
 20
0.57
 30
0.0
  0
SEQEND
  5
15D4
  8
0
 62
     7
  0
POLYLINE
  5
CFF
  8
0
 62
     7
 66
     1
 10
0.0
 20
0.0
 30
0.0
 70
     1
 40
0.0025
 41
0.0025
  0
VERTEX
  5
15D5
  8
0
 62
     7
 10
4.9987500000000002
 20
0.33
 30
0.0
 42
1.0
  0
VERTEX
  5
15D6
  8
0
 62
     7
 10
5.0012499999999989
 20
0.33
 30
0.0
 42
1.0
  0
SEQEND
  5
15D7
  8
0
 62
     7
  0
POLYLINE
  5
D00
  8
0
 62
     7
 66
     1
 10
0.0
 20
0.0
 30
0.0
 70
     1
 40
0.0025
 41
0.0025
  0
VERTEX
  5
15D8
  8
0
 62
     7
 10
4.9987500000000002
 20
0.57
 30
0.0
 42
1.0
  0
VERTEX
  5
15D9
  8
0
 62
     7
 10
5.0012499999999989
 20
0.57
 30
0.0
 42
1.0
  0
SEQEND
  5
15DA
  8
0
 62
     7
  0
POLYLINE
  5
D01
  8
0
 62
     7
 66
     1
 10
0.0
 20
0.0
 30
0.0
 70
     1
 40
0.005
 41
0.005
  0
VERTEX
  5
15DB
  8
0
 62
     7
 10
5.25
 20
0.6
 30
0.0
 42
1.0
  0
VERTEX
  5
15DC
  8
0
 62
     7
 10
4.75
 20
0.6
 30
0.0
 42
1.0
  0
SEQEND
  5
15DD
  8
0
 62
     7
  0
POLYLINE
  5
D02
  8
0
 62
     7
 66
     1
 10
0.0
 20
0.0
 30
0.0
 70
     1
 40
0.0025
 41
0.0025
  0
VERTEX
  5
15DE
  8
0
 62
     7
 10
5.2487500000000002
 20
0.6
 30
0.0
 42
1.0
  0
VERTEX
  5
15DF
  8
0
 62
     7
 10
5.2512499999999989
 20
0.6
 30
0.0
 42
1.0
  0
SEQEND
  5
15E0
  8
0
 62
     7
  0
POLYLINE
  5
D03
  8
0
 62
     7
 66
     1
 10
0.0
 20
0.0
 30
0.0
 70
     1
 40
0.0025
 41
0.0025
  0
VERTEX
  5
15E1
  8
0
 62
     7
 10
4.7487500000000002
 20
0.6
 30
0.0
 42
1.0
  0
VERTEX
  5
15E2
  8
0
 62
     7
 10
4.7512499999999989
 20
0.6
 30
0.0
 42
1.0
  0
SEQEND
  5
15E3
  8
0
 62
     7
  0
POLYLINE
  5
D04
  8
0
 62
     7
 66
     1
 10
0.0
 20
0.0
 30
0.0
 70
     1
 40
0.005
 41
0.005
  0
VERTEX
  5
15E4
  8
0
 62
     7
 10
5.2300000000000004
 20
0.6
 30
0.0
 42
1.0
  0
VERTEX
  5
15E5
  8
0
 62
     7
 10
4.7699999999999987
 20
0.6
 30
0.0
 42
1.0
  0
SEQEND
  5
15E6
  8
0
 62
     7
  0
POLYLINE
  5
D05
  8
0
 62
     7
 66
     1
 10
0.0
 20
0.0
 30
0.0
 70
     1
 40
0.0025
 41
0.0025
  0
VERTEX
  5
15E7
  8
0
 62
     7
 10
5.2287499999999989
 20
0.6
 30
0.0
 42
1.0
  0
VERTEX
  5
15E8
  8
0
 62
     7
 10
5.2312500000000002
 20
0.6
 30
0.0
 42
1.0
  0
SEQEND
  5
15E9
  8
0
 62
     7
  0
POLYLINE
  5
D06
  8
0
 62
     7
 66
     1
 10
0.0
 20
0.0
 30
0.0
 70
     1
 40
0.0025
 41
0.0025
  0
VERTEX
  5
15EA
  8
0
 62
     7
 10
4.7687499999999989
 20
0.6
 30
0.0
 42
1.0
  0
VERTEX
  5
15EB
  8
0
 62
     7
 10
4.7712500000000002
 20
0.6
 30
0.0
 42
1.0
  0
SEQEND
  5
15EC
  8
0
 62
     7
  0
POLYLINE
  5
D07
  8
0
 62
     7
 66
     1
 10
0.0
 20
0.0
 30
0.0
 70
     1
 40
0.005
 41
0.005
  0
VERTEX
  5
15ED
  8
0
 62
     7
 10
5.2099999999999991
 20
0.6
 30
0.0
 42
1.0
  0
VERTEX
  5
15EE
  8
0
 62
     7
 10
4.79
 20
0.6
 30
0.0
 42
1.0
  0
SEQEND
  5
15EF
  8
0
 62
     7
  0
POLYLINE
  5
D08
  8
0
 62
     7
 66
     1
 10
0.0
 20
0.0
 30
0.0
 70
     1
 40
0.0025
 41
0.0025
  0
VERTEX
  5
15F0
  8
0
 62
     7
 10
5.2087500000000002
 20
0.6
 30
0.0
 42
1.0
  0
VERTEX
  5
15F1
  8
0
 62
     7
 10
5.2112499999999988
 20
0.6
 30
0.0
 42
1.0
  0
SEQEND
  5
15F2
  8
0
 62
     7
  0
POLYLINE
  5
D09
  8
0
 62
     7
 66
     1
 10
0.0
 20
0.0
 30
0.0
 70
     1
 40
0.0025
 41
0.0025
  0
VERTEX
  5
15F3
  8
0
 62
     7
 10
4.7887500000000003
 20
0.6
 30
0.0
 42
1.0
  0
VERTEX
  5
15F4
  8
0
 62
     7
 10
4.7912499999999989
 20
0.6
 30
0.0
 42
1.0
  0
SEQEND
  5
15F5
  8
0
 62
     7
  0
POLYLINE
  5
D0A
  8
0
 62
     7
 66
     1
 10
0.0
 20
0.0
 30
0.0
 70
     1
 40
0.005
 41
0.005
  0
VERTEX
  5
15F6
  8
0
 62
     7
 10
5.1900000000000004
 20
0.6
 30
0.0
 42
1.0
  0
VERTEX
  5
15F7
  8
0
 62
     7
 10
4.8099999999999987
 20
0.6
 30
0.0
 42
1.0
  0
SEQEND
  5
15F8
  8
0
 62
     7
  0
POLYLINE
  5
D0B
  8
0
 62
     7
 66
     1
 10
0.0
 20
0.0
 30
0.0
 70
     1
 40
0.0025
 41
0.0025
  0
VERTEX
  5
15F9
  8
0
 62
     7
 10
5.1887499999999989
 20
0.6
 30
0.0
 42
1.0
  0
VERTEX
  5
15FA
  8
0
 62
     7
 10
5.1912500000000001
 20
0.6
 30
0.0
 42
1.0
  0
SEQEND
  5
15FB
  8
0
 62
     7
  0
POLYLINE
  5
D0C
  8
0
 62
     7
 66
     1
 10
0.0
 20
0.0
 30
0.0
 70
     1
 40
0.0025
 41
0.0025
  0
VERTEX
  5
15FC
  8
0
 62
     7
 10
4.808749999999999
 20
0.6
 30
0.0
 42
1.0
  0
VERTEX
  5
15FD
  8
0
 62
     7
 10
4.8112500000000002
 20
0.6
 30
0.0
 42
1.0
  0
SEQEND
  5
15FE
  8
0
 62
     7
  0
POLYLINE
  5
D0D
  8
0
 62
     7
 66
     1
 10
0.0
 20
0.0
 30
0.0
 70
     1
 40
0.005
 41
0.005
  0
VERTEX
  5
15FF
  8
0
 62
     7
 10
5.169999999999999
 20
0.6
 30
0.0
 42
1.0
  0
VERTEX
  5
1600
  8
0
 62
     7
 10
4.8300000000000001
 20
0.6
 30
0.0
 42
1.0
  0
SEQEND
  5
1601
  8
0
 62
     7
  0
POLYLINE
  5
D0E
  8
0
 62
     7
 66
     1
 10
0.0
 20
0.0
 30
0.0
 70
     1
 40
0.0025
 41
0.0025
  0
VERTEX
  5
1602
  8
0
 62
     7
 10
5.1687500000000002
 20
0.6
 30
0.0
 42
1.0
  0
VERTEX
  5
1603
  8
0
 62
     7
 10
5.1712499999999988
 20
0.6
 30
0.0
 42
1.0
  0
SEQEND
  5
1604
  8
0
 62
     7
  0
POLYLINE
  5
D0F
  8
0
 62
     7
 66
     1
 10
0.0
 20
0.0
 30
0.0
 70
     1
 40
0.0025
 41
0.0025
  0
VERTEX
  5
1605
  8
0
 62
     7
 10
4.8287500000000003
 20
0.6
 30
0.0
 42
1.0
  0
VERTEX
  5
1606
  8
0
 62
     7
 10
4.8312499999999989
 20
0.6
 30
0.0
 42
1.0
  0
SEQEND
  5
1607
  8
0
 62
     7
  0
POLYLINE
  5
D10
  8
0
 62
     7
 66
     1
 10
0.0
 20
0.0
 30
0.0
 70
     1
 40
0.005
 41
0.005
  0
VERTEX
  5
1608
  8
0
 62
     7
 10
5.1500000000000004
 20
0.6
 30
0.0
 42
1.0
  0
VERTEX
  5
1609
  8
0
 62
     7
 10
4.8499999999999988
 20
0.6
 30
0.0
 42
1.0
  0
SEQEND
  5
160A
  8
0
 62
     7
  0
POLYLINE
  5
D11
  8
0
 62
     7
 66
     1
 10
0.0
 20
0.0
 30
0.0
 70
     1
 40
0.0025
 41
0.0025
  0
VERTEX
  5
160B
  8
0
 62
     7
 10
5.1487499999999988
 20
0.6
 30
0.0
 42
1.0
  0
VERTEX
  5
160C
  8
0
 62
     7
 10
5.1512500000000001
 20
0.6
 30
0.0
 42
1.0
  0
SEQEND
  5
160D
  8
0
 62
     7
  0
POLYLINE
  5
D12
  8
0
 62
     7
 66
     1
 10
0.0
 20
0.0
 30
0.0
 70
     1
 40
0.0025
 41
0.0025
  0
VERTEX
  5
160E
  8
0
 62
     7
 10
4.848749999999999
 20
0.6
 30
0.0
 42
1.0
  0
VERTEX
  5
160F
  8
0
 62
     7
 10
4.8512500000000003
 20
0.6
 30
0.0
 42
1.0
  0
SEQEND
  5
1610
  8
0
 62
     7
  0
POLYLINE
  5
D13
  8
0
 62
     7
 66
     1
 10
0.0
 20
0.0
 30
0.0
 70
     1
 40
0.005
 41
0.005
  0
VERTEX
  5
1611
  8
0
 62
     7
 10
5.129999999999999
 20
0.6
 30
0.0
 42
1.0
  0
VERTEX
  5
1612
  8
0
 62
     7
 10
4.8700000000000001
 20
0.6
 30
0.0
 42
1.0
  0
SEQEND
  5
1613
  8
0
 62
     7
  0
POLYLINE
  5
D14
  8
0
 62
     7
 66
     1
 10
0.0
 20
0.0
 30
0.0
 70
     1
 40
0.0025
 41
0.0025
  0
VERTEX
  5
1614
  8
0
 62
     7
 10
5.1287500000000001
 20
0.6
 30
0.0
 42
1.0
  0
VERTEX
  5
1615
  8
0
 62
     7
 10
5.1312499999999988
 20
0.6
 30
0.0
 42
1.0
  0
SEQEND
  5
1616
  8
0
 62
     7
  0
POLYLINE
  5
D15
  8
0
 62
     7
 66
     1
 10
0.0
 20
0.0
 30
0.0
 70
     1
 40
0.0025
 41
0.0025
  0
VERTEX
  5
1617
  8
0
 62
     7
 10
4.8687500000000004
 20
0.6
 30
0.0
 42
1.0
  0
VERTEX
  5
1618
  8
0
 62
     7
 10
4.871249999999999
 20
0.6
 30
0.0
 42
1.0
  0
SEQEND
  5
1619
  8
0
 62
     7
  0
POLYLINE
  5
D16
  8
0
 62
     7
 66
     1
 10
0.0
 20
0.0
 30
0.0
 70
     1
 40
0.005
 41
0.005
  0
VERTEX
  5
161A
  8
0
 62
     7
 10
5.1100000000000003
 20
0.6
 30
0.0
 42
1.0
  0
VERTEX
  5
161B
  8
0
 62
     7
 10
4.8899999999999988
 20
0.6
 30
0.0
 42
1.0
  0
SEQEND
  5
161C
  8
0
 62
     7
  0
POLYLINE
  5
D17
  8
0
 62
     7
 66
     1
 10
0.0
 20
0.0
 30
0.0
 70
     1
 40
0.0025
 41
0.0025
  0
VERTEX
  5
161D
  8
0
 62
     7
 10
5.1087499999999988
 20
0.6
 30
0.0
 42
1.0
  0
VERTEX
  5
161E
  8
0
 62
     7
 10
5.1112500000000001
 20
0.6
 30
0.0
 42
1.0
  0
SEQEND
  5
161F
  8
0
 62
     7
  0
POLYLINE
  5
D18
  8
0
 62
     7
 66
     1
 10
0.0
 20
0.0
 30
0.0
 70
     1
 40
0.0025
 41
0.0025
  0
VERTEX
  5
1620
  8
0
 62
     7
 10
4.888749999999999
 20
0.6
 30
0.0
 42
1.0
  0
VERTEX
  5
1621
  8
0
 62
     7
 10
4.8912500000000003
 20
0.6
 30
0.0
 42
1.0
  0
SEQEND
  5
1622
  8
0
 62
     7
  0
POLYLINE
  5
D19
  8
0
 62
     7
 66
     1
 10
0.0
 20
0.0
 30
0.0
 70
     1
 40
0.005
 41
0.005
  0
VERTEX
  5
1623
  8
0
 62
     7
 10
5.089999999999999
 20
0.6
 30
0.0
 42
1.0
  0
VERTEX
  5
1624
  8
0
 62
     7
 10
4.9100000000000001
 20
0.6
 30
0.0
 42
1.0
  0
SEQEND
  5
1625
  8
0
 62
     7
  0
POLYLINE
  5
D1A
  8
0
 62
     7
 66
     1
 10
0.0
 20
0.0
 30
0.0
 70
     1
 40
0.0025
 41
0.0025
  0
VERTEX
  5
1626
  8
0
 62
     7
 10
5.0887500000000001
 20
0.6
 30
0.0
 42
1.0
  0
VERTEX
  5
1627
  8
0
 62
     7
 10
5.0912499999999987
 20
0.6
 30
0.0
 42
1.0
  0
SEQEND
  5
1628
  8
0
 62
     7
  0
POLYLINE
  5
D1B
  8
0
 62
     7
 66
     1
 10
0.0
 20
0.0
 30
0.0
 70
     1
 40
0.0025
 41
0.0025
  0
VERTEX
  5
1629
  8
0
 62
     7
 10
4.9087500000000004
 20
0.6
 30
0.0
 42
1.0
  0
VERTEX
  5
162A
  8
0
 62
     7
 10
4.911249999999999
 20
0.6
 30
0.0
 42
1.0
  0
SEQEND
  5
162B
  8
0
 62
     7
  0
POLYLINE
  5
D1C
  8
0
 62
     7
 66
     1
 10
0.0
 20
0.0
 30
0.0
 70
     1
 40
0.005
 41
0.005
  0
VERTEX
  5
162C
  8
0
 62
     7
 10
5.0700000000000003
 20
0.6
 30
0.0
 42
1.0
  0
VERTEX
  5
162D
  8
0
 62
     7
 10
4.9299999999999988
 20
0.6
 30
0.0
 42
1.0
  0
SEQEND
  5
162E
  8
0
 62
     7
  0
POLYLINE
  5
D1D
  8
0
 62
     7
 66
     1
 10
0.0
 20
0.0
 30
0.0
 70
     1
 40
0.0025
 41
0.0025
  0
VERTEX
  5
162F
  8
0
 62
     7
 10
5.0687499999999988
 20
0.6
 30
0.0
 42
1.0
  0
VERTEX
  5
1630
  8
0
 62
     7
 10
5.07125
 20
0.6
 30
0.0
 42
1.0
  0
SEQEND
  5
1631
  8
0
 62
     7
  0
POLYLINE
  5
D1E
  8
0
 62
     7
 66
     1
 10
0.0
 20
0.0
 30
0.0
 70
     1
 40
0.0025
 41
0.0025
  0
VERTEX
  5
1632
  8
0
 62
     7
 10
4.9287499999999991
 20
0.6
 30
0.0
 42
1.0
  0
VERTEX
  5
1633
  8
0
 62
     7
 10
4.9312500000000004
 20
0.6
 30
0.0
 42
1.0
  0
SEQEND
  5
1634
  8
0
 62
     7
  0
POLYLINE
  5
D1F
  8
0
 62
     7
 66
     1
 10
0.0
 20
0.0
 30
0.0
 70
     1
 40
0.005
 41
0.005
  0
VERTEX
  5
1635
  8
0
 62
     7
 10
5.0499999999999989
 20
0.6
 30
0.0
 42
1.0
  0
VERTEX
  5
1636
  8
0
 62
     7
 10
4.9500000000000002
 20
0.6
 30
0.0
 42
1.0
  0
SEQEND
  5
1637
  8
0
 62
     7
  0
POLYLINE
  5
D20
  8
0
 62
     7
 66
     1
 10
0.0
 20
0.0
 30
0.0
 70
     1
 40
0.0025
 41
0.0025
  0
VERTEX
  5
1638
  8
0
 62
     7
 10
5.0487500000000001
 20
0.6
 30
0.0
 42
1.0
  0
VERTEX
  5
1639
  8
0
 62
     7
 10
5.0512499999999987
 20
0.6
 30
0.0
 42
1.0
  0
SEQEND
  5
163A
  8
0
 62
     7
  0
POLYLINE
  5
D21
  8
0
 62
     7
 66
     1
 10
0.0
 20
0.0
 30
0.0
 70
     1
 40
0.0025
 41
0.0025
  0
VERTEX
  5
163B
  8
0
 62
     7
 10
4.9487500000000004
 20
0.6
 30
0.0
 42
1.0
  0
VERTEX
  5
163C
  8
0
 62
     7
 10
4.951249999999999
 20
0.6
 30
0.0
 42
1.0
  0
SEQEND
  5
163D
  8
0
 62
     7
  0
POLYLINE
  5
D22
  8
0
 62
     7
 66
     1
 10
0.0
 20
0.0
 30
0.0
 40
0.005
 41
0.005
  0
VERTEX
  5
163E
  8
0
 62
     7
 10
1.0
 20
0.33
 30
0.0
  0
VERTEX
  5
163F
  8
0
 62
     7
 10
1.0
 20
0.57
 30
0.0
  0
SEQEND
  5
1640
  8
0
 62
     7
  0
POLYLINE
  5
D23
  8
0
 62
     7
 66
     1
 10
0.0
 20
0.0
 30
0.0
 70
     1
 40
0.0025
 41
0.0025
  0
VERTEX
  5
1641
  8
0
 62
     7
 10
0.99875
 20
0.33
 30
0.0
 42
1.0
  0
VERTEX
  5
1642
  8
0
 62
     7
 10
1.0012499999999991
 20
0.33
 30
0.0
 42
1.0
  0
SEQEND
  5
1643
  8
0
 62
     7
  0
POLYLINE
  5
D24
  8
0
 62
     7
 66
     1
 10
0.0
 20
0.0
 30
0.0
 70
     1
 40
0.0025
 41
0.0025
  0
VERTEX
  5
1644
  8
0
 62
     7
 10
0.99875
 20
0.57
 30
0.0
 42
1.0
  0
VERTEX
  5
1645
  8
0
 62
     7
 10
1.0012499999999991
 20
0.57
 30
0.0
 42
1.0
  0
SEQEND
  5
1646
  8
0
 62
     7
  0
POLYLINE
  5
D25
  8
0
 62
     7
 66
     1
 10
0.0
 20
0.0
 30
0.0
 40
0.005
 41
0.005
  0
VERTEX
  5
1647
  8
0
 62
     7
 10
1.0
 20
0.63
 30
0.0
  0
VERTEX
  5
1648
  8
0
 62
     7
 10
1.0
 20
0.8699999999999999
 30
0.0
  0
SEQEND
  5
1649
  8
0
 62
     7
  0
POLYLINE
  5
D26
  8
0
 62
     7
 66
     1
 10
0.0
 20
0.0
 30
0.0
 70
     1
 40
0.0025
 41
0.0025
  0
VERTEX
  5
164A
  8
0
 62
     7
 10
0.99875
 20
0.63
 30
0.0
 42
1.0
  0
VERTEX
  5
164B
  8
0
 62
     7
 10
1.0012499999999991
 20
0.63
 30
0.0
 42
1.0
  0
SEQEND
  5
164C
  8
0
 62
     7
  0
POLYLINE
  5
D27
  8
0
 62
     7
 66
     1
 10
0.0
 20
0.0
 30
0.0
 70
     1
 40
0.0025
 41
0.0025
  0
VERTEX
  5
164D
  8
0
 62
     7
 10
0.99875
 20
0.8699999999999999
 30
0.0
 42
1.0
  0
VERTEX
  5
164E
  8
0
 62
     7
 10
1.0012499999999991
 20
0.8699999999999999
 30
0.0
 42
1.0
  0
SEQEND
  5
164F
  8
0
 62
     7
  0
POLYLINE
  5
D28
  8
0
 62
     7
 66
     1
 10
0.0
 20
0.0
 30
0.0
 40
0.005
 41
0.005
  0
VERTEX
  5
1650
  8
0
 62
     7
 10
0.73
 20
0.6
 30
0.0
  0
VERTEX
  5
1651
  8
0
 62
     7
 10
0.9699999999999999
 20
0.6
 30
0.0
  0
SEQEND
  5
1652
  8
0
 62
     7
  0
POLYLINE
  5
D29
  8
0
 62
     7
 66
     1
 10
0.0
 20
0.0
 30
0.0
 70
     1
 40
0.0025
 41
0.0025
  0
VERTEX
  5
1653
  8
0
 62
     7
 10
0.72875
 20
0.6
 30
0.0
 42
1.0
  0
VERTEX
  5
1654
  8
0
 62
     7
 10
0.73125
 20
0.6
 30
0.0
 42
1.0
  0
SEQEND
  5
1655
  8
0
 62
     7
  0
POLYLINE
  5
D2A
  8
0
 62
     7
 66
     1
 10
0.0
 20
0.0
 30
0.0
 70
     1
 40
0.0025
 41
0.0025
  0
VERTEX
  5
1656
  8
0
 62
     7
 10
0.96875
 20
0.6
 30
0.0
 42
1.0
  0
VERTEX
  5
1657
  8
0
 62
     7
 10
0.9712499999999998
 20
0.6
 30
0.0
 42
1.0
  0
SEQEND
  5
1658
  8
0
 62
     7
  0
POLYLINE
  5
D2B
  8
0
 62
     7
 66
     1
 10
0.0
 20
0.0
 30
0.0
 40
0.005
 41
0.005
  0
VERTEX
  5
1659
  8
0
 62
     7
 10
1.03
 20
0.6
 30
0.0
  0
VERTEX
  5
165A
  8
0
 62
     7
 10
1.27
 20
0.6
 30
0.0
  0
SEQEND
  5
165B
  8
0
 62
     7
  0
POLYLINE
  5
D2C
  8
0
 62
     7
 66
     1
 10
0.0
 20
0.0
 30
0.0
 70
     1
 40
0.0025
 41
0.0025
  0
VERTEX
  5
165C
  8
0
 62
     7
 10
1.0287500000000001
 20
0.6
 30
0.0
 42
1.0
  0
VERTEX
  5
165D
  8
0
 62
     7
 10
1.03125
 20
0.6
 30
0.0
 42
1.0
  0
SEQEND
  5
165E
  8
0
 62
     7
  0
POLYLINE
  5
D2D
  8
0
 62
     7
 66
     1
 10
0.0
 20
0.0
 30
0.0
 70
     1
 40
0.0025
 41
0.0025
  0
VERTEX
  5
165F
  8
0
 62
     7
 10
1.26875
 20
0.6
 30
0.0
 42
1.0
  0
VERTEX
  5
1660
  8
0
 62
     7
 10
1.2712499999999991
 20
0.6
 30
0.0
 42
1.0
  0
SEQEND
  5
1661
  8
0
 62
     7
  0
POLYLINE
  5
D2E
  8
0
 62
     7
 66
     1
 10
0.0
 20
0.0
 30
0.0
 70
     1
 40
0.005
 41
0.005
  0
VERTEX
  5
1662
  8
0
 62
     7
 10
1.05
 20
0.6
 30
0.0
 42
1.0
  0
VERTEX
  5
1663
  8
0
 62
     7
 10
0.95
 20
0.6
 30
0.0
 42
1.0
  0
SEQEND
  5
1664
  8
0
 62
     7
  0
POLYLINE
  5
D2F
  8
0
 62
     7
 66
     1
 10
0.0
 20
0.0
 30
0.0
 70
     1
 40
0.0025
 41
0.0025
  0
VERTEX
  5
1665
  8
0
 62
     7
 10
1.0487500000000001
 20
0.6
 30
0.0
 42
1.0
  0
VERTEX
  5
1666
  8
0
 62
     7
 10
1.05125
 20
0.6
 30
0.0
 42
1.0
  0
SEQEND
  5
1667
  8
0
 62
     7
  0
POLYLINE
  5
D30
  8
0
 62
     7
 66
     1
 10
0.0
 20
0.0
 30
0.0
 70
     1
 40
0.0025
 41
0.0025
  0
VERTEX
  5
1668
  8
0
 62
     7
 10
0.94875
 20
0.6
 30
0.0
 42
1.0
  0
VERTEX
  5
1669
  8
0
 62
     7
 10
0.9512500000000002
 20
0.6
 30
0.0
 42
1.0
  0
SEQEND
  5
166A
  8
0
 62
     7
  0
POLYLINE
  5
D31
  8
0
 62
     7
 66
     1
 10
0.0
 20
0.0
 30
0.0
 70
     1
 40
0.005
 41
0.005
  0
VERTEX
  5
166B
  8
0
 62
     7
 10
1.0700000000000001
 20
0.6
 30
0.0
 42
1.0
  0
VERTEX
  5
166C
  8
0
 62
     7
 10
0.9299999999999998
 20
0.6
 30
0.0
 42
1.0
  0
SEQEND
  5
166D
  8
0
 62
     7
  0
POLYLINE
  5
D32
  8
0
 62
     7
 66
     1
 10
0.0
 20
0.0
 30
0.0
 70
     1
 40
0.0025
 41
0.0025
  0
VERTEX
  5
166E
  8
0
 62
     7
 10
1.0687500000000001
 20
0.6
 30
0.0
 42
1.0
  0
VERTEX
  5
166F
  8
0
 62
     7
 10
1.07125
 20
0.6
 30
0.0
 42
1.0
  0
SEQEND
  5
1670
  8
0
 62
     7
  0
POLYLINE
  5
D33
  8
0
 62
     7
 66
     1
 10
0.0
 20
0.0
 30
0.0
 70
     1
 40
0.0025
 41
0.0025
  0
VERTEX
  5
1671
  8
0
 62
     7
 10
0.9287499999999999
 20
0.6
 30
0.0
 42
1.0
  0
VERTEX
  5
1672
  8
0
 62
     7
 10
0.93125
 20
0.6
 30
0.0
 42
1.0
  0
SEQEND
  5
1673
  8
0
 62
     7
  0
POLYLINE
  5
D34
  8
0
 62
     7
 66
     1
 10
0.0
 20
0.0
 30
0.0
 70
     1
 40
0.005
 41
0.005
  0
VERTEX
  5
1674
  8
0
 62
     7
 10
1.0900000000000001
 20
0.6
 30
0.0
 42
1.0
  0
VERTEX
  5
1675
  8
0
 62
     7
 10
0.9099999999999999
 20
0.6
 30
0.0
 42
1.0
  0
SEQEND
  5
1676
  8
0
 62
     7
  0
POLYLINE
  5
D35
  8
0
 62
     7
 66
     1
 10
0.0
 20
0.0
 30
0.0
 70
     1
 40
0.0025
 41
0.0025
  0
VERTEX
  5
1677
  8
0
 62
     7
 10
1.0887500000000001
 20
0.6
 30
0.0
 42
1.0
  0
VERTEX
  5
1678
  8
0
 62
     7
 10
1.0912500000000001
 20
0.6
 30
0.0
 42
1.0
  0
SEQEND
  5
1679
  8
0
 62
     7
  0
POLYLINE
  5
D36
  8
0
 62
     7
 66
     1
 10
0.0
 20
0.0
 30
0.0
 70
     1
 40
0.0025
 41
0.0025
  0
VERTEX
  5
167A
  8
0
 62
     7
 10
0.9087499999999998
 20
0.6
 30
0.0
 42
1.0
  0
VERTEX
  5
167B
  8
0
 62
     7
 10
0.91125
 20
0.6
 30
0.0
 42
1.0
  0
SEQEND
  5
167C
  8
0
 62
     7
  0
POLYLINE
  5
D37
  8
0
 62
     7
 66
     1
 10
0.0
 20
0.0
 30
0.0
 70
     1
 40
0.005
 41
0.005
  0
VERTEX
  5
167D
  8
0
 62
     7
 10
1.1100000000000001
 20
0.6
 30
0.0
 42
1.0
  0
VERTEX
  5
167E
  8
0
 62
     7
 10
0.89
 20
0.6
 30
0.0
 42
1.0
  0
SEQEND
  5
167F
  8
0
 62
     7
  0
POLYLINE
  5
D38
  8
0
 62
     7
 66
     1
 10
0.0
 20
0.0
 30
0.0
 70
     1
 40
0.0025
 41
0.0025
  0
VERTEX
  5
1680
  8
0
 62
     7
 10
1.108749999999999
 20
0.6
 30
0.0
 42
1.0
  0
VERTEX
  5
1681
  8
0
 62
     7
 10
1.1112500000000001
 20
0.6
 30
0.0
 42
1.0
  0
SEQEND
  5
1682
  8
0
 62
     7
  0
POLYLINE
  5
D39
  8
0
 62
     7
 66
     1
 10
0.0
 20
0.0
 30
0.0
 70
     1
 40
0.0025
 41
0.0025
  0
VERTEX
  5
1683
  8
0
 62
     7
 10
0.8887500000000002
 20
0.6
 30
0.0
 42
1.0
  0
VERTEX
  5
1684
  8
0
 62
     7
 10
0.8912499999999999
 20
0.6
 30
0.0
 42
1.0
  0
SEQEND
  5
1685
  8
0
 62
     7
  0
POLYLINE
  5
D3A
  8
0
 62
     7
 66
     1
 10
0.0
 20
0.0
 30
0.0
 70
     1
 40
0.005
 41
0.005
  0
VERTEX
  5
1686
  8
0
 62
     7
 10
1.129999999999999
 20
0.6
 30
0.0
 42
1.0
  0
VERTEX
  5
1687
  8
0
 62
     7
 10
0.8699999999999999
 20
0.6
 30
0.0
 42
1.0
  0
SEQEND
  5
1688
  8
0
 62
     7
  0
POLYLINE
  5
D3B
  8
0
 62
     7
 66
     1
 10
0.0
 20
0.0
 30
0.0
 70
     1
 40
0.0025
 41
0.0025
  0
VERTEX
  5
1689
  8
0
 62
     7
 10
1.128749999999999
 20
0.6
 30
0.0
 42
1.0
  0
VERTEX
  5
168A
  8
0
 62
     7
 10
1.1312500000000001
 20
0.6
 30
0.0
 42
1.0
  0
SEQEND
  5
168B
  8
0
 62
     7
  0
POLYLINE
  5
D3C
  8
0
 62
     7
 66
     1
 10
0.0
 20
0.0
 30
0.0
 70
     1
 40
0.0025
 41
0.0025
  0
VERTEX
  5
168C
  8
0
 62
     7
 10
0.86875
 20
0.6
 30
0.0
 42
1.0
  0
VERTEX
  5
168D
  8
0
 62
     7
 10
0.87125
 20
0.6
 30
0.0
 42
1.0
  0
SEQEND
  5
168E
  8
0
 62
     7
  0
POLYLINE
  5
D3D
  8
0
 62
     7
 66
     1
 10
0.0
 20
0.0
 30
0.0
 70
     1
 40
0.005
 41
0.005
  0
VERTEX
  5
168F
  8
0
 62
     7
 10
1.149999999999999
 20
0.6
 30
0.0
 42
1.0
  0
VERTEX
  5
1690
  8
0
 62
     7
 10
0.85
 20
0.6
 30
0.0
 42
1.0
  0
SEQEND
  5
1691
  8
0
 62
     7
  0
POLYLINE
  5
D3E
  8
0
 62
     7
 66
     1
 10
0.0
 20
0.0
 30
0.0
 70
     1
 40
0.0025
 41
0.0025
  0
VERTEX
  5
1692
  8
0
 62
     7
 10
1.148749999999999
 20
0.6
 30
0.0
 42
1.0
  0
VERTEX
  5
1693
  8
0
 62
     7
 10
1.1512500000000001
 20
0.6
 30
0.0
 42
1.0
  0
SEQEND
  5
1694
  8
0
 62
     7
  0
POLYLINE
  5
D3F
  8
0
 62
     7
 66
     1
 10
0.0
 20
0.0
 30
0.0
 70
     1
 40
0.0025
 41
0.0025
  0
VERTEX
  5
1695
  8
0
 62
     7
 10
0.84875
 20
0.6
 30
0.0
 42
1.0
  0
VERTEX
  5
1696
  8
0
 62
     7
 10
0.8512500000000001
 20
0.6
 30
0.0
 42
1.0
  0
SEQEND
  5
1697
  8
0
 62
     7
  0
POLYLINE
  5
D40
  8
0
 62
     7
 66
     1
 10
0.0
 20
0.0
 30
0.0
 70
     1
 40
0.005
 41
0.005
  0
VERTEX
  5
1698
  8
0
 62
     7
 10
1.169999999999999
 20
0.6
 30
0.0
 42
1.0
  0
VERTEX
  5
1699
  8
0
 62
     7
 10
0.8299999999999999
 20
0.6
 30
0.0
 42
1.0
  0
SEQEND
  5
169A
  8
0
 62
     7
  0
POLYLINE
  5
D41
  8
0
 62
     7
 66
     1
 10
0.0
 20
0.0
 30
0.0
 70
     1
 40
0.0025
 41
0.0025
  0
VERTEX
  5
169B
  8
0
 62
     7
 10
1.1687499999999991
 20
0.6
 30
0.0
 42
1.0
  0
VERTEX
  5
169C
  8
0
 62
     7
 10
1.1712499999999999
 20
0.6
 30
0.0
 42
1.0
  0
SEQEND
  5
169D
  8
0
 62
     7
  0
POLYLINE
  5
D42
  8
0
 62
     7
 66
     1
 10
0.0
 20
0.0
 30
0.0
 70
     1
 40
0.0025
 41
0.0025
  0
VERTEX
  5
169E
  8
0
 62
     7
 10
0.8287499999999999
 20
0.6
 30
0.0
 42
1.0
  0
VERTEX
  5
169F
  8
0
 62
     7
 10
0.83125
 20
0.6
 30
0.0
 42
1.0
  0
SEQEND
  5
16A0
  8
0
 62
     7
  0
POLYLINE
  5
D43
  8
0
 62
     7
 66
     1
 10
0.0
 20
0.0
 30
0.0
 70
     1
 40
0.005
 41
0.005
  0
VERTEX
  5
16A1
  8
0
 62
     7
 10
1.1899999999999991
 20
0.6
 30
0.0
 42
1.0
  0
VERTEX
  5
16A2
  8
0
 62
     7
 10
0.8100000000000001
 20
0.6
 30
0.0
 42
1.0
  0
SEQEND
  5
16A3
  8
0
 62
     7
  0
POLYLINE
  5
D44
  8
0
 62
     7
 66
     1
 10
0.0
 20
0.0
 30
0.0
 70
     1
 40
0.0025
 41
0.0025
  0
VERTEX
  5
16A4
  8
0
 62
     7
 10
1.1887499999999991
 20
0.6
 30
0.0
 42
1.0
  0
VERTEX
  5
16A5
  8
0
 62
     7
 10
1.191249999999999
 20
0.6
 30
0.0
 42
1.0
  0
SEQEND
  5
16A6
  8
0
 62
     7
  0
POLYLINE
  5
D45
  8
0
 62
     7
 66
     1
 10
0.0
 20
0.0
 30
0.0
 70
     1
 40
0.0025
 41
0.0025
  0
VERTEX
  5
16A7
  8
0
 62
     7
 10
0.80875
 20
0.6
 30
0.0
 42
1.0
  0
VERTEX
  5
16A8
  8
0
 62
     7
 10
0.81125
 20
0.6
 30
0.0
 42
1.0
  0
SEQEND
  5
16A9
  8
0
 62
     7
  0
POLYLINE
  5
D46
  8
0
 62
     7
 66
     1
 10
0.0
 20
0.0
 30
0.0
 70
     1
 40
0.005
 41
0.005
  0
VERTEX
  5
16AA
  8
0
 62
     7
 10
1.2099999999999991
 20
0.6
 30
0.0
 42
1.0
  0
VERTEX
  5
16AB
  8
0
 62
     7
 10
0.7900000000000002
 20
0.6
 30
0.0
 42
1.0
  0
SEQEND
  5
16AC
  8
0
 62
     7
  0
POLYLINE
  5
D47
  8
0
 62
     7
 66
     1
 10
0.0
 20
0.0
 30
0.0
 70
     1
 40
0.0025
 41
0.0025
  0
VERTEX
  5
16AD
  8
0
 62
     7
 10
1.2087499999999991
 20
0.6
 30
0.0
 42
1.0
  0
VERTEX
  5
16AE
  8
0
 62
     7
 10
1.211249999999999
 20
0.6
 30
0.0
 42
1.0
  0
SEQEND
  5
16AF
  8
0
 62
     7
  0
POLYLINE
  5
D48
  8
0
 62
     7
 66
     1
 10
0.0
 20
0.0
 30
0.0
 70
     1
 40
0.0025
 41
0.0025
  0
VERTEX
  5
16B0
  8
0
 62
     7
 10
0.7887500000000001
 20
0.6
 30
0.0
 42
1.0
  0
VERTEX
  5
16B1
  8
0
 62
     7
 10
0.79125
 20
0.6
 30
0.0
 42
1.0
  0
SEQEND
  5
16B2
  8
0
 62
     7
  0
POLYLINE
  5
D49
  8
0
 62
     7
 66
     1
 10
0.0
 20
0.0
 30
0.0
 70
     1
 40
0.005
 41
0.005
  0
VERTEX
  5
16B3
  8
0
 62
     7
 10
1.2299999999999991
 20
0.6
 30
0.0
 42
1.0
  0
VERTEX
  5
16B4
  8
0
 62
     7
 10
0.7700000000000001
 20
0.6
 30
0.0
 42
1.0
  0
SEQEND
  5
16B5
  8
0
 62
     7
  0
POLYLINE
  5
D4A
  8
0
 62
     7
 66
     1
 10
0.0
 20
0.0
 30
0.0
 70
     1
 40
0.0025
 41
0.0025
  0
VERTEX
  5
16B6
  8
0
 62
     7
 10
1.22875
 20
0.6
 30
0.0
 42
1.0
  0
VERTEX
  5
16B7
  8
0
 62
     7
 10
1.2312499999999991
 20
0.6
 30
0.0
 42
1.0
  0
SEQEND
  5
16B8
  8
0
 62
     7
  0
POLYLINE
  5
D4B
  8
0
 62
     7
 66
     1
 10
0.0
 20
0.0
 30
0.0
 70
     1
 40
0.0025
 41
0.0025
  0
VERTEX
  5
16B9
  8
0
 62
     7
 10
0.76875
 20
0.6
 30
0.0
 42
1.0
  0
VERTEX
  5
16BA
  8
0
 62
     7
 10
0.7712500000000001
 20
0.6
 30
0.0
 42
1.0
  0
SEQEND
  5
16BB
  8
0
 62
     7
  0
POLYLINE
  5
D4C
  8
0
 62
     7
 66
     1
 10
0.0
 20
0.0
 30
0.0
 70
     1
 40
0.005
 41
0.005
  0
VERTEX
  5
16BC
  8
0
 62
     7
 10
1.25
 20
0.6
 30
0.0
 42
1.0
  0
VERTEX
  5
16BD
  8
0
 62
     7
 10
0.75
 20
0.6
 30
0.0
 42
1.0
  0
SEQEND
  5
16BE
  8
0
 62
     7
  0
POLYLINE
  5
D4D
  8
0
 62
     7
 66
     1
 10
0.0
 20
0.0
 30
0.0
 70
     1
 40
0.0025
 41
0.0025
  0
VERTEX
  5
16BF
  8
0
 62
     7
 10
1.24875
 20
0.6
 30
0.0
 42
1.0
  0
VERTEX
  5
16C0
  8
0
 62
     7
 10
1.2512499999999991
 20
0.6
 30
0.0
 42
1.0
  0
SEQEND
  5
16C1
  8
0
 62
     7
  0
POLYLINE
  5
D4E
  8
0
 62
     7
 66
     1
 10
0.0
 20
0.0
 30
0.0
 70
     1
 40
0.0025
 41
0.0025
  0
VERTEX
  5
16C2
  8
0
 62
     7
 10
0.7487500000000001
 20
0.6
 30
0.0
 42
1.0
  0
VERTEX
  5
16C3
  8
0
 62
     7
 10
0.75125
 20
0.6
 30
0.0
 42
1.0
  0
SEQEND
  5
16C4
  8
0
 62
     7
  0
ENDSEC
  0
EOF
